Enviado por: NiKi
Agrandar Letra
Reducir Letra
Imprimir






Frank Sinatra, Extraños En La Noche (strangers In The Night)

Bue esta es la versión que si esta bien...

Escrito por Nicolás Lezcano Blasco...

e-3-5-5-3-5-3-5-7-5-3-2-3-3-2-3-2-3-5-3-2-0-2-2-0-2-0-2-3-2-0-8--------------------
B----------------------------------------------------------------------------------
G----------------------------------------------------------------------------------
D----------------------------------------------------------------------------------
A----------------------------------------------------------------------------------
E----------------------------------------------------------------------------------

e-5-7-7-5-7-5-7-8-7-5-3-5-5-3-5-3-5-7-5-3-2-3-3-2-3-2-3-5-3-2-10-------------------
B----------------------------------------------------------------------------------
G----------------------------------------------------------------------------------
D----------------------------------------------------------------------------------
A----------------------------------------------------------------------------------
E----------------------------------------------------------------------------------

e-10-8-8-7-7-5-5-4-4-7-8-10-10-8-8-7-10-8-8-7-7-8-7-7-5-5-7-5-5-3-3-2-2--0-8-7-----B----------------------------------------------------------------------------------
G----------------------------------------------------------------------------------
D----------------------------------------------------------------------------------
A----------------------------------------------------------------------------------
E----------------------------------------------------------------------------------

e-3-5-5-3-5-3-5-7-5-3-2-3-3-2-3-2-3-5-3-2-0-2-2-0-2-0-2-3-2-0-8--------------------
B----------------------------------------------------------------------------------
G----------------------------------------------------------------------------------
D----------------------------------------------------------------------------------
A----------------------------------------------------------------------------------
E----------------------------------------------------------------------------------

e-5-7-7-5-7-5-7-8-7-5-3-5-5-3-5-3-5-7-5-3-2-3-3-2-3-2-3-5-3-2-10-------------------
B----------------------------------------------------------------------------------
G----------------------------------------------------------------------------------
D----------------------------------------------------------------------------------
A----------------------------------------------------------------------------------
E----------------------------------------------------------------------------------

e-10-8-8-7-7-5-5-4-4-7-8-10-10-8-8-7-10-8-8-7-7-8-7-7-5-5-7-5-5-3-3-2-2--0-8-7-3-G-B----------------------------------------------------------------------------------
G----------------------------------------------------------------------------------
D----------------------------------------------------------------------------------
A----------------------------------------------------------------------------------
E----------------------------------------------------------------------------------
Aviso: Este fichero es trabajo propio de su transcriptor y representa su interpretación personal de la canción. El material contenido en esta página es para exclusivo uso privado, por lo que se prohibe su reproducción o retransmisión, así como su uso para fines comerciales.

Califica esta canción


Comentarios en Facebook