Enviado por: toomii14
Agrandar Letra
Reducir Letra
Imprimir






Nirvana, All Apologies

All Apologies - Nirvana

1)--------------------------------------------------------------
2)--------------------------------------------------------------
3)--------------------------------------------------------------
4)-----------------------------11-11-9-8------------------------
5)---8-9-8-11-11-9-8----8-9-8-----------------8-9-8-11-11-9-8---
6)-0-----------------0---------------------0--------------------

1)--------------------------------------------------------------
2)--------------------------------------------------------------
3)--------10-10-8-6---------------------------------------------
4)--------------------------------------------------------------
5)--8-9-8-------------------------------------------------------
6)-0------------------------------------------------------------

FIN!  Termine, Uff! Jaja! 

Bueno, Dejen sus comentarios, Dudas o Opiniones sobre este tema!

Espero que les guste!

Problamemente, Pueda subir Smell Like Teens Spirit, No les aseguro nada.

Bueno, DISFRUTENLA!
Aviso: Este fichero es trabajo propio de su transcriptor y representa su interpretación personal de la canción. El material contenido en esta página es para exclusivo uso privado, por lo que se prohibe su reproducción o retransmisión, así como su uso para fines comerciales.

Califica esta canción


Comentarios en Facebook