Acordes y tablaturas para guitarra

Acordes y Tablaturas
Usuario: Password:

Buscar:
Acordes y Tablaturas >> Letra L >> Acordes de Las Pastillas del Abuelo >> Que es Dios
Tablatura de Que es Dios, Las Pastillas del Abuelo

Que es Dios

Las Pastillas del Abuelo






Base: (A - G#m - F#m - D) x2

e|------------------------------------|
B|------------------------------------|
G|-----9s11s9--11-9-------------------|
D|-7-9--------------9h11p9--7-9-------|
A|------------------------------9-7---|
E|------------------------------------|

e|----------------------------------------5--7--5---|
B|-------------------------------------7--5--7--5---|
G|----------------9-------------6-9----6------------|
D|--7-7-7-9-9b-9b---9brp7---7-9-----7---------------|
A|------------------------9-------------------------|
E|--------------------------------------------------|

e|----------12-----------------12----------------------------------|
B|--12brp10----10-12b--12brp10----10-12b--12brp10-9-10-------------|
G|-----------------------------------------------------9-11--------|
D|----------------------------------------------------------9s11---|
A|-----------------------------------------------------------------|
E|-----------------------------------------------------------------|

e|-----17---------------17---------------17--14---------------------|
B|--14----17-17b-17--14----17-17b-17-14--17--14---17--17------------|
G|------------------------------------------------16b-16-14----14---|
D|----------------------------------------------------------16------|
A|------------------------------------------------------------------|
E|------------------------------------------------------------------|

e|------------------------|
B|------------------------|
G|--11p9----9-11------9---|
D|-------11------9-11-----|
A|------------------------|
E|------------------------|


Que te parecio? Calificalo con estrellas!!

Rating: 4.7/10 (92 votos)

Este fichero es trabajo propio de su transcriptor y representa su interpretación personal de la canción. El material contenido en esta página es para exclusivo uso privado, por lo que se prohibe su reproducción o retransmisión, así como su uso para fines comerciales.


Deja tus comentarios:

Letras de Las Pastillas del Abuelo
Letras de canciones | Musica Independiente