Acordes y tablaturas para guitarra

Acordes y Tablaturas
Usuario: Password:

Buscar:
Acordes y Tablaturas >> Letra T >> Acordes de The Beatles >> Blackbird
Tablatura de Blackbird, The Beatles

Blackbird

The Beatles






                                  Blackbird                                     


                                                                         Beatles


♪=95

                                                          
     E  E  E  E  Q          E  S  S  S  S E   E  S  S  S  S E   
E||---------------------|--------------------------------------|
B||--0-----1-----3------|--12----12----12----12----12----12----|
G||-----0-----0---------|------0----------0------0----------0--|
D||---------------------|--------------------------------------|
A||--------0-----2------|--10-------10-------10-------10-------|
E||--3------------------|--------------------------------------|


  Blackbird singing in the dead of                
  E                                E  E  E  Q     
-------------------------------------------------|
--0-----------------------------------1-----3----|
-----------------------------------0-----0-------|
-------------------------------------------------|
--------------------------------------0-----2----|
--3----------------------------------------------|


   night                                 
   E    S  S  S  S E   E  S  S  S  S E   
----------------------------------------|
--12------12----12----12----12----12----|
--------0----------0------0----------0--|
----------------------------------------|
--10---------10-------10-------10-------|
----------------------------------------|


  take theese broken wings and learn to fly                       
  E                                         E  E  E  E  E  E  E   
--0--------------------------------------------3-----2-----5-----|
-----------------------------------------------------------------|
--------------------------------------------0-----0-----0-----0--|
-----------------------------------------------------0-----------|
--3--------------------------------------------4-----------6-----|
-----------------------------------------------------------------|


                                 all your life           
  E  S S S S E  E  S S S S E     E             E  E  E   
--3----3---3----3----3---3----|--2----------------3-----|
------------------------------|-------------------------|
-----0-------0-----0-------0--|----------------0-----0--|
--2------2------1------1------|--0----------------------|
------------------------------|-------------------4-----|
------------------------------|-------------------------|


  E  S S S S E  E  S S S S E   
------------------------------|
--5----5---5----4----4---4----|
-----0-------0-----0-------0--|
------------------------------|
--3------3------3------3------|
------------------------------|


  you were on--ly  wai-  -ting     for this mo-                           
  E                                             S S S S E  E  S S S S E   
-------------------------------------------------------------------------|
--3-----------------------------------------------3---3----2----2---2----|
------------------------------------------------0-------0-----0-------0--|
-------------------------------------------------------------------------|
--2-------------------------------------------------2------0------0------|
-------------------------------------------------------------------------|


   --- ment  to  arise                                                        
  E                    S S S S E  E  S S S S E     E  E  E  E  E  S S S S E   
------------------------------------------------|--0-------------------------|
--1----------------------1---1----0----0---0----|--------3-----2----2---2----|
-----------------------0-------0-----0-------0--|-----0-----0-----0-------0--|
--0------------------------0--------------------|----------------------------|
------------------------------------------------|--3-----2-----0------0------|
----------------------------------3------3------|----------------------------|


                           (II)  
  E  S S S S E  E  S S S S E     
--------------------------------|
--1----1---1----0----0---0------|
-----0-------0-----0-------0----|
--0------0----------------------|
--------------------------------|
----------------3------3--------|


  Blackbird singing in the dead of                
  E                                E  E  E  Q     
-------------------------------------------------|
--0-----------------------------------1-----3----|
-----------------------------------0-----0-------|
-------------------------------------------------|
--------------------------------------0-----2----|
--3----------------------------------------------|


   night                                 
   E    S  S  S  S E   E  S  S  S  S E   
----------------------------------------|
--12------12----12----12----12----12----|
--------0----------0------0----------0--|
----------------------------------------|
--10---------10-------10-------10-------|
----------------------------------------|


  take theese sunken eyes and learn to se                       
  E                                       E  E  E  E  E  E  E   
--0------------------------------------------3-----2-----5-----|
---------------------------------------------------------------|
------------------------------------------0-----0-----0-----0--|
---------------------------------------------------0-----------|
--3------------------------------------------4-----------6-----|
---------------------------------------------------------------|


                                 all your life           
  E  S S S S E  E  S S S S E     E             E  E  E   
--3----3---3----3----3---3----|--2----------------3-----|
------------------------------|-------------------------|
-----0-------0-----0-------0--|----------------0-----0--|
--2------2------1------1------|--0----------------------|
------------------------------|-------------------4-----|
------------------------------|-------------------------|


  E  S S S S E  E  S S S S E   
------------------------------|
--5----5---5----4----4---4----|
-----0-------0-----0-------0--|
------------------------------|
--3------3------3------3------|
------------------------------|


  you were on--ly  wai-  -ting     for this mo-                           
  E                                             S S S S E  E  S S S S E   
-------------------------------------------------------------------------|
--3-----------------------------------------------3---3----2----2---2----|
------------------------------------------------0-------0-----0-------0--|
-------------------------------------------------------------------------|
--2-------------------------------------------------2------0------0------|
-------------------------------------------------------------------------|


   --- ment  to  be  free                           
  E                       S S S S E  E  S S S S E   
---------------------------------------------------|
--1-------------------------1---1----0----0---0----|
--------------------------0-------0-----0-------0--|
--0---------------------------0--------------------|
---------------------------------------------------|
-------------------------------------3------3------|


   Black--   -bird                   fly                      
   E                                    E  E  E  E  E  E  E   
-------------------------------------------------------------|
--10---------------------------------------8-----6-----5-----|
----------------------------------------0-----0-----0-----0--|
-------------------------------------------------------------|
---8---------------------------------------7-----5-----3-----|
-------------------------------------------------------------|


  E  S S S S E  E  S S S S E   
------------------------------|
--3----3---3----5----5---5----|
-----0-------0-----0-------0--|
------------------------------|
--1------1------3------3------|
------------------------------|


   Black--    bird                     fly                      
   E                                      E  E  E  E  E  E  E   
---------------------------------------------------------------|
--10-----------------------------------------8-----6-----5-----|
------------------------------------------0-----0-----0-----0--|
---------------------------------------------------------------|
---8-----------------------------------------7-----5-----3-----|
---------------------------------------------------------------|


                       in-to the light           
  E  S S S S E  E  S                   S S S E   
------------------------------------------------|
--3----3---3----2----------------------2---2----|
-----0-------0-----0-------------------------0--|
------------------------------------------------|
--1------1------0------------------------0------|
------------------------------------------------|


     of the dark black               night                
  E                    S S S S E     E     E  E  E  Q     
----------------------------------|----------------------|
--1----------------------1---1----|--0--------1-----3----|
-----------------------0-------0--|--------0-----0-------|
--0------------------------0------|----------------------|
----------------------------------|-----------0-----2----|
----------------------------------|--3-------------------|


   E  S  S  S  S E   E  E   Q       E  E  E  E  E  E  E  E   
---------------------------------|--0-----3-----2-----5-----|
--12----12----12----12-----12----|--------------------------|
------0----------0------0--------|-----0-----0-----0-----0--|
---------------------------------|--------------0-----------|
--10-------10-------10-----10----|--3-----4-----------6-----|
---------------------------------|--------------------------|


  E  S S S S E  E  S S S S E     E  E  E  E     E  S S S S E  E  S S S S E   
--3----3---3----3----3---3----|--2-----3-----|------------------------------|
---------------------------0--|--------------|--5----5---5----4----4---4----|
-----0-------0-----0----------|-----0-----0--|-----0-------0-----0-------0--|
--2------2------1------1------|--0-----------|------------------------------|
------------------------------|--------4-----|--3------3------3------3------|
------------------------------|--------------|------------------------------|


  E  S S S S E  E  S S S S E     E  S S S S E  E  S S S S E   
------------------------------|------------------------------|
--3----3---3----2----2---2----|--1----1---1----0----0---0----|
-----0-------0-----0-------0--|-----0-------0-----0-------0--|
------------------------------|--0------0--------------------|
--2------2------0------0------|------------------------------|
------------------------------|----------------3------3------|


   Black--   -bird                   fly                      
   E                                    E  E  E  E  E  E  E   
-------------------------------------------------------------|
--10---------------------------------------8-----6-----5-----|
----------------------------------------0-----0-----0-----0--|
-------------------------------------------------------------|
---8---------------------------------------7-----5-----3-----|
-------------------------------------------------------------|


  E  S S S S E  E  S S S S E   
------------------------------|
--3----3---3----5----5---5----|
-----0-------0-----0-------0--|
------------------------------|
--1------1------3------3------|
------------------------------|


   Black--    bird                     fly                      
   E                                      E  E  E  E  E  E  E   
---------------------------------------------------------------|
--10-----------------------------------------8-----6-----5-----|
------------------------------------------0-----0-----0-----0--|
---------------------------------------------------------------|
---8-----------------------------------------7-----5-----3-----|
---------------------------------------------------------------|


                       in-to the light           
  E  S S S S E  E  S                   S S S E   
------------------------------------------------|
--3----3---3----2----------------------2---2----|
-----0-------0-----0-------------------------0--|
------------------------------------------------|
--1------1------0------------------------0------|
------------------------------------------------|


     of the dark black               night                
  E                    S S S S E     E     E  E  E  Q     
----------------------------------|----------------------|
--1----------------------1---1----|--0--------1-----3----|
-----------------------0-------0--|--------0-----0-------|
--0------------------------0------|----------------------|
----------------------------------|-----------0-----2----|
----------------------------------|--3-------------------|


   E  S  S  S  S E   E  E   S  S E      E  S  S  S  S E   E  S  S  S  S E   
------------------------------------|--------------------------------------|
--12----12----12----12--------12----|--12----12----12----12----12----12----|
------0----------0------0--------0--|------0----------0------0----------0--|
------------------------------------|--------------------------------------|
--10-------10-------10-----10-------|--10-------10-------10-------10-------|
------------------------------------|--------------------------------------|


   E  E   E  E   E  E   Q       Q     Q       H           E  E  E  E  E  E   
-----------------------------|-------------|-----------|--------------------|
--12-----12-----12-----12----|--L----12----|-----------|--0-----1-----3-----|
------0------0------0--------|-------------|-----------|-----0-----0-----0--|
-----------------------------|-------------|-----------|--------------------|
--10-----10-----10-----10----|--L----10----|-----------|--------0-----0-----|
-----------------------------|-------------|-----------|--3-----------------|


  E  E  E  E  E  E     E  S S S S E   
--------------------|----------------|
--5-----3-----2-----|--1----1---1----|
-----0-----0-----0--|-----0-------0--|
--------------------|--0------0------|
--3-----2-----0-----|----------------|
--------------------|----------------|


  Blackbird singing in the dead of                
  E                                E  E  E  Q     
-------------------------------------------------|
--0-----------------------------------1-----3----|
-----------------------------------0-----0-------|
-------------------------------------------------|
--------------------------------------0-----2----|
--3----------------------------------------------|


   night                                 
   E    S  S  S  S E   E  S  S  S  S E   
----------------------------------------|
--12------12----12----12----12----12----|
--------0----------0------0----------0--|
----------------------------------------|
--10---------10-------10-------10-------|
----------------------------------------|


  take theese broken wings and learn to fly                       
  E                                         E  E  E  E  E  E  E   
--0--------------------------------------------3-----2-----5-----|
-----------------------------------------------------------------|
--------------------------------------------0-----0-----0-----0--|
-----------------------------------------------------0-----------|
--3--------------------------------------------4-----------6-----|
-----------------------------------------------------------------|


                                 all your life           
  E  S S S S E  E  S S S S E     E             E  E  E   
--3----3---3----3----3---3----|--2----------------3-----|
------------------------------|-------------------------|
-----0-------0-----0-------0--|----------------0-----0--|
--2------2------1------1------|--0----------------------|
------------------------------|-------------------4-----|
------------------------------|-------------------------|


  E  S S S S E  E  S S S S E   
------------------------------|
--5----5---5----4----4---4----|
-----0-------0-----0-------0--|
------------------------------|
--3------3------3------3------|
------------------------------|


  you were on--ly  wai-  -ting     for this mo-                           
  E                                             S S S S E  E  S S S S E   
-------------------------------------------------------------------------|
--3-----------------------------------------------3---3----2----2---2----|
------------------------------------------------0-------0-----0-------0--|
-------------------------------------------------------------------------|
--2-------------------------------------------------2------0------0------|
-------------------------------------------------------------------------|


   --- ment  to  arise                           
  E                    S S S S E  E  S S S S E   
------------------------------------------------|
--1----------------------1---1----0----0---0----|
-----------------------0-------0-----0-------0--|
--0------------------------0--------------------|
------------------------------------------------|
----------------------------------3------3------|


  you  were     on-    ly wai- ting    for this mo-                         
  E                                                 E  E  E  E  S S S S E   
---------------------------------------------------------------------------|
--5----------------------------------------------------3-----2----2---2----|
----------------------------------------------------0-----0-----0-------0--|
---------------------------------------------------------------------------|
--3----------------------------------------------------2-----0------0------|
---------------------------------------------------------------------------|


    ment   to      a-  rise                           
  E                         S S S S E  E  S S S S E   
-----------------------------------------------------|
--1---------------------------1---1----0----0---0----|
----------------------------0-------0-----0-------0--|
--0-----------------------------0--------------------|
-----------------------------------------------------|
---------------------------------------3------3------|


  you  were     on-    ly wai- ting    for this mo-                         
  E                                                 E  E  E  E  S S S S E   
---------------------------------------------------------------------------|
--5----------------------------------------------------3-----2----2---2----|
----------------------------------------------------0-----0-----0-------0--|
---------------------------------------------------------------------------|
--3----------------------------------------------------2-----0------0------|
---------------------------------------------------------------------------|


    ment   to      a-  rise                                            
  E                         S S S S E  E  E  Q       W                 
------------------------------------------3--L----|--L----------------|
--1---------------------------1---1----0--0--L----|-------------------|
----------------------------0-------0-----0--L----|-------------------|
--0-----------------------------0---------0--L----|-------------------|
--------------------------------------------------|-------------------|
---------------------------------------3----------|-------------------|


  W                  
-------------------||
--L----------------||
-------------------||
-------------------||
-------------------||
-------------------||


Que te parecio? Calificalo con estrellas!!

Rating: 7.7/10 (136 votos)

Este fichero es trabajo propio de su transcriptor y representa su interpretación personal de la canción. El material contenido en esta página es para exclusivo uso privado, por lo que se prohibe su reproducción o retransmisión, así como su uso para fines comerciales.


Deja tus comentarios:

Letras de The Beatles
Letras de canciones | Musica Independiente