Enviado por: fevg
Agrandar Letra
Reducir Letra
Imprimir


Otras Versiones de Shelf:

jonas brothers, Shelf

1.----------12-10----------------------
2.-------10----------------------------
3.-8h11------------12~--11-12-11-9-----
4.---------------------------------12--
5.-------------------------------------
6.-------------------------------------

1.----------12-10---------------------
2.-------10-------12~-----------------
3.-11------------------11-12-11-9-----
4.---------------------------------12-
5.------------------------------------
6.------------------------------------
 
1.--------------------------------------------------------
2.---------------------7^8--7~--7-8-7---------------------
3.------7--9--7---7--9-----------------9-7----------------
4.-7h9----------8---------------------------9-7-----------
5.----------------------------------------------9-7--7h9--
6.--------------------------------------------------------
Aviso: Este fichero es trabajo propio de su transcriptor y representa su interpretación personal de la canción. El material contenido en esta página es para exclusivo uso privado, por lo que se prohibe su reproducción o retransmisión, así como su uso para fines comerciales.
comentario del colaborador: bien el el intro original de la cansion de Shelf, espero que les guste si quieren saber mas [email protected]

Califica esta canción


Comentarios en Facebook