Enviado por:
facubersuit

Bersuit Vergarabat, Madre Hay Una Sola

Imprimir
1 --10--8--7--------------------8--7-----------------
2 ------------10--8--7----------------10--8--7-------
3 -----------------------9--7-------------------9--7-
4 ---------------------------------------------------
5 ---------------------------------------------------
6 ---------------------------------------------------

1 ------7--------------------------------------------
2 ---------10--8--7-----------------10--8--7---------
3 ---------------------9--7-------------------9--7---
4 --10-----------------------10--9-------------------
5 ---------------------------------------------------
6 ---------------------------------------------------


1 ---------------------------------------------------
2 ---------------------------------------------------
3 ---------------------------------------------------
4 --10--9--7------------------------------------------
5 ---------------------------------------------------
6 ---------------------------------------------------
Aviso: Este fichero es trabajo propio de su transcriptor y representa su interpretación personal de la canción. El material contenido en esta página es para exclusivo uso privado, por lo que se prohibe su reproducción o retransmisión, así como su uso para fines comerciales.
comentario del colaborador: Bueno esto es la intro de madre hay una sola y desp vienen los acordes (sol, re, mim, do, lam, sim)

Califica esta canción


Comentarios en Facebook