Enviado por: bauti13
Agrandar Letra
Reducir Letra
Imprimir



AC/DC, rock and roll train (intro)

--------------------------------------------------
--------------------------------------------------
--------7--------7--7--7------7-------------------
---7----7---7----7--7--7------7-----5--5--5--5----
---7----5---7----5--5--5------5-----5--5--5--5----
---5--------5-----------------------3--3--3--3----


----------------------------------
----------------------------------
---7--7--7--7---------------------
---7--7--7--7-----7--7--7---------
---5--5--5--5-----7--7--7---------
------------------5--5--5---------
Aviso: Este fichero es trabajo propio de su transcriptor y representa su interpretación personal de la canción. El material contenido en esta página es para exclusivo uso privado, por lo que se prohibe su reproducción o retransmisión, así como su uso para fines comerciales.

Califica esta canción


Comentarios en Facebook