Enviado por: daron98
Agrandar Letra
Reducir Letra
Imprimir

Acordes:
½ tono
| +0 |
½ tono
||
Volver










Elefante, La Planta

 

las notas son simples 

son  Mi Do Re Y Sol 

SOLO QUE EN SOL ES PUNTEADO
ASI


1---------3---------
2-------3-----------    
3-----3-------------
4-------------------
5-------------------     
6---3--------------- 

1---------3---------
2-------3-----------    
3-----3-------------
4-------------------
5--3----------------     
6-------------------  
Aviso: Este fichero es trabajo propio de su transcriptor y representa su interpretación personal de la canción. El material contenido en esta página es para exclusivo uso privado, por lo que se prohibe su reproducción o retransmisión, así como su uso para fines comerciales.

Califica esta canción


Comentarios en Facebook