Acordes y tablaturas para guitarra

Acordes y Tablaturas
Usuario: Password:

Buscar:
Acordes y Tablaturas >> Letra M >> Acordes de Marilyn Manson >> The beautiful people
Tablatura de The beautiful people, Marilyn Manson

The beautiful people

Marilyn Manson






Low to high: D, A, D, G, B, E. 


INTRO 

e)--------------------------------------------------------------------------| 
b)--------------------------------------------------------------------------| 
g)--------------------------------------------------------------------------| 
d)--x--x--x--x--x---------------0----3---0-----0----3---0-------0---3---0---| 
a)--x--x--x--x--x----repeat-----0----3---0-----0----3---0-------0---3---0---| 
D)--x--x--x--x--x---------------0----3---0-----0----3---0-------0---3---0---| 


----------------------------------------------------------------------------| 
----------------------------------------------------------------------------| 
----------------------------------------------------------------------------| 
-0--3---0------0--6--0--6--0-----------0--6--0--6--0------------------------| 
-0--3---0------0--6--0--6--0-----------0--6--0--6--0------repeat 4 times----| 
-0--3---0------0--6--0--6--0-----------0--6--0--6--0------------------------| 



Verse (bass only) Second part of verse guitar in 

---------------------------------------------------------------------------| 
---------------------------------------------------------------------------| 
---------------------------------------------------------------------------| 
--x--x--x--x--x--x--x--x--x--x--x--x--x--x---------------------------------| 
--x--x--x--x--x--x--x--x--x--x--x--x--x--x-----------repeat----------------| 
--x--x--x--x--x--x--x--x--x--x--x--x--x--x---------------------------------| 


Bridge 

----------------------------------------------------------------------------| 
----------------------------------------------------------------------------| 
--7--7--7--7------6--6--6------5--5--5-----4--4--4-----repeat-2-times-------| 
----------------------------------------------------------------------------| 
--5--5--5--5------4--4--4------3--3--3-----2--2--2--------------------------| 
----------------------------------------------------------------------------| 



Chorus 

-----------------------------------------------------------------------------| 
-----------------------------------------------------------------------------| 
-----------------------------------------------------------------------------| 
--0--6--0--6--0-----------0--6--0--6--0---------0--3--0----------------------| 
--0--6--0--6--0-----------0--6--0--6--0---------0--3--0-----repeat4-times----| 
--0--6--0--6--0-----------0--6--0--6--0---------0--3--0----------------------|


chorus final
|----------------------------------------------------|
|----------------------------------------------------|
|----------------------------------------------------|
|--0--6--0--6--0----------0--6--0--6--0--6--5--4--0--|
|--0--6--0--6--0----------0--6--0--6--0--6--5--4--0--|
|--0--6--0--6--0----------0--6--0--6--0--6--5--4--0--|Repitir 4 vezes


Que te parecio? Calificalo con estrellas!!

Rating: 7.5/10 (185 votos)

Este fichero es trabajo propio de su transcriptor y representa su interpretación personal de la canción. El material contenido en esta página es para exclusivo uso privado, por lo que se prohibe su reproducción o retransmisión, así como su uso para fines comerciales.


Deja tus comentarios:
Letras de canciones | Musica Independiente