Enviado por: cozmotsc
Agrandar Letra
Reducir Letra
Imprimir











Los Cuates De Sinaloa, El Manicero

Intro

e |-------0-2-0---00-------------|
B |---2-3-------3----33-2--------|
G |------------------------------|
D |------------------------------|
A |------------------------------|
E |------------------------------|

Después se repite el intro asta donde están los dos 00 y empieza esto

e |-0-2--444-2--0-55-------------|
B |------------------------------|
G |------------------------------|
D |------------------------------|
A |------------------------------|
E |-----------------------------------------------|

Cuando se acelera  es casi lo mismo pero lo acortas

e |--0-2-44-2-0—55---------------|
B |------------------------------|
G |------------------------------|
D |------------------------------|
A |------------------------------|
E |------------------------------|

En este paso es una libre y uno en el traste

e |-05-05--07-07--09-09--010-010-|
B |------------------------------|
G |------------------------------|
D |------------------------------|
A |------------------------------|
E |------------------------------|

Esto se repite barias veces

e |-012-014-012-013-014----------|
B |------------------------------|
G |------------------------------|
D |------------------------------|
A |------------------------------|
E |------------------------------|

Luego te regresas

e |-010-010--09-09--07-07--05-05-|
B |------------------------------|
G |------------------------------|
D |------------------------------|
A |------------------------------|
E |------------------------------|
Se repite todo

Intro

e |-------0-2-0---00-------------|
B |---2-3-------3----33-2--------|
G |------------------------------|
D |------------------------------|
A |------------------------------|
E |------------------------------|

Después se repite el intro asta donde están los dos 00 y empieza esto

e |-0-2--444-2--0-55-------------|
B |------------------------------|
G |------------------------------|
D |------------------------------|
A |------------------------------|
E |-----------------------------------------------|

Cuando se acelera  es casi lo mismo pero lo acortas

e |--0-2-44-2-0—55---------------|
B |------------------------------|
G |------------------------------|
D |------------------------------|
A |------------------------------|
E |------------------------------|

En este paso es una libre y uno en el traste

e |-05-05--07-07--09-09--010-010-|
B |------------------------------|
G |------------------------------|
D |------------------------------|
A |------------------------------|
E |------------------------------|

Esto se repite barias veces

e |-012-014-012-013-014----------|
B |------------------------------|
G |------------------------------|
D |------------------------------|
A |------------------------------|
E |------------------------------|

Luego te regresas

e |-010-010--09-09--07-07--05-05-|
B |------------------------------|
G |------------------------------|
D |------------------------------|
A |------------------------------|
E |------------------------------|

Se repite todo

e |-000-2--444-2--0-55-----------|
B |------------------------------|
G |------------------------------|
D |------------------------------|
A |------------------------------|
E |------------------------------|
Aviso: Este fichero es trabajo propio de su transcriptor y representa su interpretación personal de la canción. El material contenido en esta página es para exclusivo uso privado, por lo que se prohibe su reproducción o retransmisión, así como su uso para fines comerciales.

Califica esta canción


Comentarios en Facebook


Más canciones de Los Cuates De Sinaloa: