Acordes y tablaturas para guitarra

Acordes y Tablaturas
Usuario: Password:

Buscar:
Acordes y Tablaturas >> Letra N >> Acordes de Nickelback >> Savin´ me
Tablatura de Savin´ me, Nickelback

Savin´ me

Nickelback






Intro:

e |----------------------------|----------------------------|
B |----------------------------|----------------------------|
G |-----0-------------0-----0--|-----0------0---------------|
D |-----------------------3----|---------3---------1--3-----|
A |--------8-------------------|-------------------------3--|
E |-8----------0-3-3-----------|-5-------------0-0----------|

e |----------------------------|----------------------------|
B |----------------------------|----------------------------|
G |-----0-------------0-----0--|-----0------0---------------|
D |-----------------------3----|---------3---------0--3-----|
A |--------8-------------------|-------------------------0--|
E |-8----------0-3-3-----------|-5-------------5-5----------|

Letra:


e |----------------------------|----------------------------|
B |----------------------------|----------------------------|
G |-----0-------------0-----0--|-----0------0---------------|
D |-----------------------3----|---------3---------1--3-----|
A |--------8-------------------|-------------------------3--|
E |-8----------0-3-3-----------|-5-------------0-0----------|
   Prison gates wont open up for me On these hands and knees i´m crawlin 



e |----------------------------|----------------------------|
B |----------------------------|----------------------------|
G |-----0-------------0-----0--|-----0------0---------------|
D |-----------------------3----|---------3---------0--3-----|
A |--------8-------------------|-------------------------0--|
E |-8----------0-3-3-----------|-5-------------5-5----------|
         Oh, i reach for you


e |----------------------------|----------------------------|
B |----------------------------|----------------------------|
G |-----0-------------0-----0--|-----0------0---------------|
D |-----------------------3----|---------3---------1--3-----|
A |--------8-------------------|-------------------------3--|
E |-8----------0-3-3-----------|-5-------------0-0----------|
  Well i´m terrified of these four walls these iron bars can`t hold my soul in



e |----------------------------|----------------------------|
B |----------------------------|----------------------------|
G |-----0-------------0-----0--|----------------------------|
D |-----------------------3----|----------------------------|
A |--------8-------------------|-3~-------------------------|
E |-8----------0-3-3-----------|-5~-------------------------|
            All I need is you (Hurry, I’m callin’)


e |----------------------------|----------------------------|
B |----------------------------|----------------------------|
G |-----0-------------0-----0--|----------------------------|
D |-----------------------3----|----------------------------|
A |--------8-------------------|-3~-------------------------|
E |-8----------0-3-3-----------|-5~-------------------------|
    And oh, I scream for you (Hurry, I’m fallin’)


 G        D            A
Show me what it's like

      G
To be the last one standing
G         D         A       
And teach me wrong from right

         G
And I'll show you what I can be

C
Say it for me

D
Say it to me

A                            E E
And I'll leave this life behind me

G              D             A
Say it if it's worth saving me


e |----------------------------|----------------------------|
B |----------------------------|----------------------------|
G |-----0-------------0-----0--|-----0------0---------------|
D |-----------------------3----|---------3---------1--3-----|
A |--------8-------------------|-------------------------3--|
E |-8----------0-3-3-----------|-5-------------0-0----------|
   Heaven's gates won't open up for me With these broken wings I'm fallin'

e |----------------------------|----------------------------|
B |----------------------------|----------------------------|
G |-----0-------------0-----0--|-----0------0---------------|
D |-----------------------3----|---------3---------0--3-----|
A |--------8-------------------|-------------------------0--|
E |-8----------0-3-3-----------|-5-------------5-5----------|
     And all I see is you


e |----------------------------|----------------------------|
B |----------------------------|----------------------------|
G |-----0-------------0-----0--|-----0------0---------------|
D |-----------------------3----|---------3---------1--3-----|
A |--------8-------------------|-------------------------3--|
E |-8----------0-3-3-----------|-5-------------0-0----------|
These city walls ain't got no love for me I'm on the ledge of the eighteenth story

e |----------------------------|----------------------------|
B |----------------------------|----------------------------|
G |-----0-------------0-----0--|----------------------------|
D |-----------------------3----|----------------------------|
A |--------8-------------------|-3~-------------------------|
E |-8----------0-3-3-----------|-5~-------------------------|
   And oh I scream for you (Come please I'm callin')

e |----------------------------|----------------------------|
B |----------------------------|----------------------------|
G |-----0-------------0-----0--|----------------------------|
D |-----------------------3----|----------------------------|
A |--------8-------------------|-3~-------------------------|
E |-8----------0-3-3-----------|-5~-------------------------|
   And all I need from you (Hurry I'm fallin')

G        D            A
Show me what it's like

      G
To be the last one standing
G         D         A       
And teach me wrong from right

         G
And I'll show you what I can be

C
Say it for me

D
Say it to me

A                            E E
And I'll leave this life behind me

G              D             AAAAAAAA
Say it if it's worth saving me


Solo:

e|-------------------------|----------------------------|
B|-------------------------|----------------------------|
G|-------------------------|----------------------------|
D|-6/5---------6/5---------|-6/5----------------5/6-5-3-|
A|-----8-6-8-------8-6-8---|-----8-6-8--3-3-3-5---------|
E|-------------------------|----------------------------|

e|-------------------------|--------------------------|
B|-------------------------|--------------------------|
G|-------------------------|--------------------------|
D|-6/5-----------------5--3|-5555/6666/8888/10101010--|
A|-----8-6-8--3-3-3—6------|--------------------------|
E|-------------------------|--------------------------|

e|-----------------------------|----------------------------|
B|-----------------------------|----------------------------|
G|-----------------------------|----------------------------|
D|-9/8-----------9/8-----------|-9/8------------------7/8-5-|
A|-----10-8-10-------10-8-10---|-----10-8-10--5-5-5-8-------|
E|-----------------------------|----------------------------|

e|--------------------------------|-13~------------------------|
B|--------------------------------|----------------------------|
G|12-12-12-12-13-13-13-13-15-13-15|----------------------------|
D|--------------------------------|----------------------------|
A|--------------------------------|----------------------------|
E|--------------------------------|----------------------------|



e |----------------------------|----------------------------|
B |----------------------------|----------------------------|
G |-----0-------------0-----0--|-----0------0---------------|
D |-----------------------3----|---------3---------1--3-----|
A |--------8-------------------|-------------------------3--|
E |-8----------0-3-3-----------|-5-------------0-0----------|


e |----------------------------|----------------------------|
B |----------------------------|----------------------------|
G |-----0-------------0-----0--|----------------------------|
D |-----------------------3----|----------------------------|
A |--------8-------------------|-3~-------------------------|
E |-8----------0-3-3-----------|-5~-------------------------|
   And all I need is you (hurry I’m callin)

e |----------------------------|----------------------------|
B |----------------------------|----------------------------|
G |-----0-------------0-----0--|----------------------------|
D |-----------------------3----|----------------------------|
A |--------8-------------------|-3~-------------------------|
E |-8----------0-3-3-----------|-5~-------------------------|
    And oh, I scream for you (Hurry I’m fallin)

G        D            A
Show me what it's like

      G
To be the last one standing
G         D         A       
And teach me wrong from right

         G
And I'll show you what I can be

C
Say it for me

D
Say it to me

A                            E E
And I'll leave this life behind me

G              D             AAAAAAAA
Say it if it's worth saving me

C
Say it for me

D
Say it to me

A                            E E
And I'll leave this life behind me

G              D             A
Say it if it's worth saving me


El rasgueo es vvvv^ (o escuchen la cancion y saquenlo)

Dejen sus comentarios!!! malos o buenos, como sean!!!!


Que te parecio? Calificalo con estrellas!!

Rating: 7.9/10 (116 votos)

Este fichero es trabajo propio de su transcriptor y representa su interpretación personal de la canción. El material contenido en esta página es para exclusivo uso privado, por lo que se prohibe su reproducción o retransmisión, así como su uso para fines comerciales.


Deja tus comentarios:
Letras de canciones | Musica Independiente