Enviado por: carlox_x
Agrandar Letra
Reducir Letra
Imprimir


Otras Versiones de Jinetes En El Cielo:




Los Iracundos, Jinetes En El Cielo

esta es la cancion de hermanos vasques fue la primera rola que me aprendi 8-)

E|-----------------------------
B|-----------------------------
G|-----------------------------
D|-----------------------------
A|---0-0-0-2-3-3-3-0-----------
E|-0------------------3-3-3-0-3


E|------------------------------
B|------------------------------
G|------------------------------
D|-----------------0-2-2-2---2--
A|---0-0-0-2-3-3-3---------3----
E|-0----------------------------

E|------------------------------
B|------------------------------
G|-----2-2-2-2------------------
D|-2-2---------2-2-2-2-2-2------
A|--------------------------3-0-
E|------------------------------

E|------------------------------
B|------------------------------
G|------------------------------
D|------------------------------
A|-------------3---3-0-0---0----
E|-0-1-1-1-1-1-----------3------
Aviso: Este fichero es trabajo propio de su transcriptor y representa su interpretación personal de la canción. El material contenido en esta página es para exclusivo uso privado, por lo que se prohibe su reproducción o retransmisión, así como su uso para fines comerciales.

Califica esta canción


Comentarios en Facebook