Acordes y tablaturas para guitarra

Acordes y Tablaturas
Usuario: Password:

Buscar:
Acordes y Tablaturas >> Letra I >> Acordes de Iron maiden >> No More Lies
Tablatura de No More Lies, Iron maiden

No More Lies

Iron maiden






RIFF 1
 gtr.1 (x2)
d-----------------------------|---------------------------------
A-----------------------------|-----------------------10--------
F-----11-9-11---9-11-9-11--11-|--9-11-9-11-11--9-11-12---12--11-
C--9--------------------------|---------------------------------
G-----------------------------|---------------------------------
D-----------------------------|---------------------------------
                                      
d------------------------------|-----------------------------|
A------------------------------|-----------------------------|
F--9-11-9--7--7---6-7-6-7--7---|--6-7-6--4--4---2-4-2-4--2-9-|
C------------------------------|-----------------------------|
G------------------------------|-----------------------------|
D------------------------------|-----------------------------|  


RIFF 2
 gtr.1 
d------------------------------------------------------|
A------------------------------------------------------|
F----11-11-11---11-9-11-11-----11-11-11--11-12-11-9-11-|
C--9------------------------9--------------------------|
G------------------------------------------------------|
D------------------------------------------------------|

d------------------------|-----------------------------|
A------------------------|-----------------------------|
F---11-11-11--11-9-11-11-|----11-11-11--11-12-11-9-11--|
C-9----------------------|--9--------------------------|
G------------------------|-----------------------------|
D------------------------|-----------------------------|

d--------------------------------------------------------|
A--------------------------------------------------------|
F----11-11-11---11-9-11-11----11-11-11--11-11-12-11-9-7--|
C--9------------------------9----------------------------|
G--------------------------------------------------------|
D--------------------------------------------------------|

d--------------------------------------------------------|   
A--------------------------------------------------------|
F-----11-11-11---11-11-11-11----11-11-11--11-12-11-12-11-|
C---9-------------------------9--------------------------|
G--------------------------------------------------------|
D--------------------------------------------------------|

 gtr.2 (x4)
d--------------------------------------------------------|
A--------------------------------------------------------|
F------11--11--11----------4--4--4-----------7------9----|
C----11--11--11--etc.----4--4--4--etc.-----7------9------|
G--9-------------------2-----------------5------7--------|
D--------------------------------------------------------|


RIFF 3
 gtr.1 (x4)
d------------------------------------------------------|   
A------14-15------14-15------14-15--17-15-14--15-14----|
F--16---------16---------16------------------------14--|
C------------------------------------------------------|
G------------------------------------------------------|
D------------------------------------------------------|

 gtr.2 (x4)
d--------------------------------------------------------|
A--------------------------------------------------------|
F------11--11--11-----------4--4--4---------9--9--9------|
C----11--11--11--etc.-----4--4--4--etc.---9--9--9--etc.--|
G--9--------------------2---------------7----------------|
D--------------------------------------------------------|


BACKGROUND 1 
 gtr.1 (x4)
d-------------------------------------------------------
A-------------------------------------------------------
F------11--11--11----------7--7--7----------4--4--4-----
C----11--11--11--etc.----7--7--7--etc.----4--4--4--etc.-
G--9-------------------5----------------2---------------
D-------------------------------------------------------
 
 (gtr.1)							
d----------------------
A----------------------
F------9--9--9---------	
C----9--9--9---etc.----
G--7-------------------
D----------------------
|
| gtr.2 (x3)
d---------2--let---|
A---------2--ring--|
F--6-7-6-----------|
C------------------|
G------------------|
D------------------|



BACKGROUND 2
 gtr.1 (x4)
d---------------------------------------------------------------
A---------------------------------------------------------------
F---------------------------------------------------------------
C-----9--9--9----------2--2--2---------0--0--0---------7--7-----
G---9--9--9--etc.----2--2--2--etc.---0--0--0--etc.--7--7--7-etc.
D-9----------------2---------------0--------------7-------------


CHORUS
 gtr.1 (x2, destortion enters)
d---------------------------------------------------------------
A---------------------------------------------------------------
F---------------------------------------------------------------
C--9-9-9-9-9------5-5-5-5-5-------7-7-7-7-7-------2-2-2-2-2----
G--9-9-9-9-9-(x2)-5-5-5-5-5-(x2)--7-7-7-7-7-(x2)--2-2-2-2-2(x2)
D--9-9-9-9-9------5-5-5-5-5-------7-7-7-7-7-------2-2-2-2-2-----


BACKGROUND 3
 gtr.1 (x4)
d---------------------------------------------------------|
A---------------------------------------------------------|
F---------------------------------------------------------|
C------9------------5-------------2-------------7---------|
G------9--etc.------5--etc.-------2--etc.-------7--etc.---|
D--9-9-9--------5-5-5---------2-2-2---------7-7-7---------|

BACKGROUND 4
 gtr.1 (x4) 
d-----------------------------------------------------|
A-----------------------------------------------------|
F-----------------------------------------------------|
C--9---9---9----2---2---2----0---0---0----7---7---7---|
G--9---9---9----2---2---2----0---0---0----7---7---7---|
D--9-9-9-9-9----2-2-2-2-2----0-0-0-0-0----7-7-7-7-7---|

	
BACKGROUND (for RIFF 1)
 gtr.2 (x2)
d--------------------------------------------------|
A--------------------------------------------------|
F--------------------------------------------------|
C--9---9---9-------5---5---5-------2---2---2-------|
G--9---9---9-etc.--5---5---5-etc.--2---2---2-etc.--|
D--9-9-9-9-9-------5-5-5-5-5-------2-2-2-2-2-------|

BACKGROUND (for RIFF 2)
 gtr.2 (x2)
d---------------------------------------------------------------
---|
A---------------------------------------------------------------
F---------------------------------------------------------------
C--9---9---9-------2---2---2-------5---5---5------7---7---7----
G--9---9---9-etc.--2---2---2-etc.--5---5---5-etc.-7---7---7-etc.
D--9-9-9-9-9-------2-2-2-2-2-------5-5-5-5-5------7-7-7-7-7----

BACKGROUND (for RIFF 3)
 gtr.2 (x4)
d----------------------------------------------------|
A----------------------------------------------------|
F----------------------------------------------------|
C--9---9---9--------5---5---5--------7---7---7-------|
G--9---9---9-etc.---5---5---5-etc.---7---7---7-etc.--|
D--9-9-9-9-9--------5-5-5-5-5--------7-7-7-7-7-------|

BACKGROUND (for SOLO 1)
 gtr.2 (x4)
d---------------------------------------------------------------
A---------------------------------------------------------------
F---------------------------------------------------------------
C--9---9---9-------2---2---2-------5---5---5------7---7---7----
G--9---9---9-etc.--2---2---2-etc.--5---5---5-etc.-7---7---7-etc.
D--9-9-9-9-9-------2-2-2-2-2-------5-5-5-5-5------7-7-7-7-7----


BACKGROUND (for SOLO 2)
 gtr.2 (x4)
d----------------------------------------------------|
A----------------------------------------------------|
F----------------------------------------------------|
C--9---9---9--------5---5---5--------7---7---7-------|
G--9---9---9-etc.---5---5---5-etc.---7---7---7-etc.--|
D--9-9-9-9-9--------5-5-5-5-5--------7-7-7-7-7-------|


BACKGROUND (for SOLO 3)
 gtr.2 (x2)
d----------------------------------------------------
A----------------------------------------------------
F----------------------------------------------------
C--9---9---9--------5---5---5--------7---7---7-------
G--9---9---9-etc.---5---5---5-etc.---7---7---7-etc.--
D--9-9-9-9-9--------5-5-5-5-5--------7-7-7-7-7-------

d-----------------------------------------------------|
A-----------------------------------------------------|
F-----------------------------------------------------|
C--9---9---9-------2---2---2-------5---5----7---7-----|
G--9---9---9-etc.--2---2---2-etc.--5---5----7---7-----|
D--9-9-9-9-9-------2-2-2-2-2-------5-5-5----7-7-7-----|


Song structure:
RIFF 1
RIFF 2
RIFF 3
BACKGROUND 1
BACKGROUND 2
CHORUS 
BACKGROUND 3
BACKGROUND 4
CHORUS 
RIFF 1 [with "BACKGROUND (for RIFF 1)"]
RIFF 2 [with "BACKGROUND (for RIFF 2)"]
RIFF 3 [with "BACKGROUND (for RIFF 3)"]
BACKGROUND (for SOLO 1)
BACKGROUND (for SOLO 2)
BACKGROUND (for SOLO 3)
BACKGROUND 4
CHORUS (x1.5)
RIFF 1 [with "BACKGROUND (for RIFF 1)"]
RIFF 2 (clean sound)


Que te parecio? Calificalo con estrellas!!

Rating: 7.3/10 (80 votos)

Este fichero es trabajo propio de su transcriptor y representa su interpretación personal de la canción. El material contenido en esta página es para exclusivo uso privado, por lo que se prohibe su reproducción o retransmisión, así como su uso para fines comerciales.


Deja tus comentarios:
Letras de canciones | Musica Independiente