Enviado por: juan manuel martinez marin
Agrandar Letra
Reducir Letra
Imprimir


Otras Versiones de gema:




los dandys, gema

esta es mi segunda transcripcion espero que les agrade

intro
6\------------------------------------------------------\
5\--7--7-7--------------\-5-7-----------7-\-3-5-7-------\
4\----------5-9--9-7-4--\------4-5-7--5---\-------4-5-4-\
3\------------------------------------------------------\
2\------------------------------------------------------\
1\------------------------------------------------------\

6\----------------------\-----------------------\
5\--3-5-7---------------\--3-5-7----------------\
4\--------4-5-4--7-5--4-\--------4--5-4--7-5-4--\
3\----------------------------------------------\
2\----------------------------------------------\
1\----------------------------------------------\

6\----4---4-------4-\
5\--7---7-----7-6---\
Aviso: Este fichero es trabajo propio de su transcriptor y representa su interpretación personal de la canción. El material contenido en esta página es para exclusivo uso privado, por lo que se prohibe su reproducción o retransmisión, así como su uso para fines comerciales.
comentario del colaborador: saludos a todos los kabulas del cbtis 50

Califica esta canción


Comentarios en Facebook