Enviado por:
exekiel08

Camila, Coleccionista De Canciones

CAMILA
 COLECCIONISTA DE CONCIONES
intro:
   C#
E------------------------------------------
A--4-----------------4---------------------
D--3-----------------3---------------------
G--1-----5-----1h3---1-----5-----1h3-------
B--2/4-----2/4-------2/4-----2/4-----------
e------1-----------------1-----------------

c#                          A#m
E-------------------------------------------------------
A-4------------------------------1----------------------
D--3------------------------------3---------------------
G-------------------------------------------------------
B----2-1----------------------------2h1-----------------
e-------------------------------------------------------
tu... coleccionista de canciones

     F#                  G#
E-------2-----------------4-----------------------------
A--------4-----------------6----------------------------
D------------4-----------------6------------------------
G----------3-----3-----------5---5--(5)-----------------
B--------------2-----2------------4---------------------
e------------------2--------------------3h4-------------
  dame  razones              para vivir

   C#                    A#m                 F#
E-----------------------------------------------2-------
A-4------------------------1---------------------4------
D--3-------------------------3--------------------4-----
G------------------------------3-------------------3----
B---3-1--------------------------2----------------------
e-------------------------------------------------------
   tu......... la dueña de mis sueños, quedate en ellos


           G#     F         A#m
E------------4-------1----------------------------------
A--------------------------------1----------------------
D--------------6-------3----------3---------------------
G---------------5-------2----------3--------------------
B----------------4-------1----------2-------------------
e-------------------------------------------------------
   y hasme sentir           y asi

       D#m                                 A#m
E-----------------------1-------------------------------
A--------------------------------------1----------------
D--------------1----------3-------------3---------------
G---------------3----------2-------------3--------------
B-2--4----(2)----4------------------------2-------------
e-------1---------2-------------------------------------
  en tu misterio poder         descubrir

    D#m                F
E-----------------------1-------------------------------
A-------------------------------------------------------
D--------------1----------1-----------------------------
G---------------3----------2----------------------------
B-2--4----(2)----4--------------------------------------
e-------1---------2-------------------------------------
  el sentimiento eterno................


estribillo


F#                       C#
Tú con la luna en la cabeza
                   F#
El lugar en donde empieza
                   D#m            G#
El motivo y la ilusión de mi existir


C#                                    A#m
Tan solo tú solamente quiero que seas tú
                       F#        Dm#
Mi locura, mi tranquilidad y mi delirio
        F#          G#
Mi compás y mi camino

    C#                           Am#
Y solo tú solamente quiero que seas tú
                           F#
Yo pongo en tus manos mi destino
                    F#        F#      G#       C#
Porque vivo para estar siempre, siempre  contigo amor.

intermedio:

E------------------------------------------
A--4---------------------------------------
D--3-----------------4---------------------
G--1-----5-----1h3----3---------1h3-------
B--2/4-----2/4---------2-1--2-4-----------
e------1-----------------------------------

E-------------------
A--4----------------
D--3----------------
G--1-----5-----1h3--
B--2/4-----2/4------
e------1------------



verso
     C#              A#m       F#
Tu coleccionista de canciones, mil emociones
      G#
son para ti
    C#                     A#m      F#
Tu lo que soñé en mi vida entera, quedate en ella
       G#
hazme sentir
 D#m                                 A#m
E-----------------------1-------------------------------
A--------------------------------------1----------------
D--------------1----------3-------------3---------------
G---------------3----------2-------------3--------------
B-2--4----(2)----4------------------------2-------------
e-------1---------2-------------------------------------
Y así ir transformando la magia de ti

D#m                F
E-----------------------1-------------------------------
A-------------------------------------------------------
D--------------1----------1-----------------------------
G---------------3----------2----------------------------
B-2--4----(2)----4--------------------------------------
e-------1---------2-------------------------------------

En un respiro del alma

estribillo

Tú con la luna en la cabeza
El lugar en donde empieza
El motivo y la ilusión de mi existir

coro

Tan solo tú solamente quiero que seas tú
Mi locura, mi tranquilidad y mi delirio
Mi compás y mi camino
Y solo tú solamente quiero que seas tú
Yo pongo en tus manos mi destino
                    F#            G#
Porque vivo para estar siempre contigo……

A                                 B
Ya no queda mas espacio en mi interior
                                A
Has llenado con tu luz cada rincón
                                      F#       G#
Es por ti que con el tiempo mi alma siente diferente
F#  G#
So…lo

coro
Tú solamente quiero que seas tú
Mi locura, mi tranquilidad y mi delirio
Mi compás y mi camino
Solo tú solamente quiero que seas tú
Yo pongo en tus manos mi destino
Porque vivo para estar siempre contigo amor.


final:   C# A#m  F#   D#m  G#     X  2
Aviso: Este fichero es trabajo propio de su transcriptor y representa su interpretación personal de la canción. El material contenido en esta página es para exclusivo uso privado, por lo que se prohibe su reproducción o retransmisión, así como su uso para fines comerciales.

Califica esta canción


Comentarios en Facebook