Enviado por: Anonimo
Agrandar Letra
Reducir Letra
Imprimir

Acordes:
½ tono
| +0 |
½ tono
||
Volver

Otras Versiones de Espadas Y Serpientes:









Attaque 77, Espadas Y Serpientes

 Intro :  E  [A E D] x2 C E
e|--------------------------------------------------------------------------
B|--------------------------------------------------------------------------
G|----------------------------------------------------------------7-7-7--9--
D|-----7-6-------------------------------------------------7-6----7-7-7--9--
A|---------7---7-7-7--5-5-5--4-4-4-----------------------------7--5-5-5--7--
E|-5-5--------------------------------7-7-7--5-5-4-5--5-5-------------------


[solo] [sobre A E D]
e|---------------------------------------------------------12---12-----
B|------------------2-0-2-3-2-0---3-2-0--------------------12---12-----
G|--4b-4b-4b-4b-4b--------------2-------2---2-1--1-2-1-------14b--14b--
D|----------------------------------------------2------2---------------
A|---------------------------------------------------------------------
E|---------------------------------------------------------------------


A       E              D
 Yo recuerdo aquellas noches
A       E              D
y también te recuerdo a vos
A       E              D
ese fue mi último golpe
A       E              D
y también fue mi último amor.


D          E        C#m          F#m
 Yo te había jurado    que ya no robaría
D          E           F#m   E D
 yo no quería terminar así
D           E    C#m          F#m
 no llores nena,    no llores más
D                              E
se que muy pronto me van a soltar.
Y volver, a verte...


A         E        D
Yo volveré, a las calles
A         E        D
se que mi barrio esperar
A         E        D
Yo volveré, a las calles
A         E        D
hay un lugar para estar, con vos una vez más.

[intro]

A            E              D
Aquí, en mi celda estoy muy solo
A          E          D
solo hay lugar para soñar
A            E           D
sueños de espadas y serpientes
A           E           D
sueños de muerte y libertad.

D          E           C#m          F#m
Nunca olvidé esa noche,     en ese hotel de Flores
D             E                  F#m   E D
fue aquella la última vez que te vi
D           E    C#m          F#m
 no llores nena,    no llores más
D                              E
se que muy pronto me van a soltar.
Y volver, a verte...


A         E        D
Yo volveré, a las calles
A         E        D
se que mi barrio esperar
A         E        D
Yo volveré, a las calles
A         E        D
hay un lugar para estar, con vos una vez más.

[solo]

A         E        D
Yo volveré, a las calles
A         E        D
se que mi barrio esperar
A         E        D
Yo volveré, a las calles
A         E        D
hay un lugar para estar, con vos una vez más.
---------------------------------------------
Este si es para la nena -- nada mas ---

Fuente original: LaCuerda
Colaborador original: Deivid Toscano [[email protected]]
Aviso: Este fichero es trabajo propio de su transcriptor y representa su interpretación personal de la canción. El material contenido en esta página es para exclusivo uso privado, por lo que se prohibe su reproducción o retransmisión, así como su uso para fines comerciales.

Califica esta canción


Comentarios en Facebook