Enviado por: Alex666777
Agrandar Letra
Reducir Letra
Imprimir


Otras Versiones de Munasq´echay:

Los Kjarkas, Munasq´echay

1er Punteo 
MI -3-----3-----2-----2-------0-0-0-0—3-0-----------
SI -----0-----0-----0-----0---1-1-1-1------3---3--3-
SOL---0-----0-----2-----2-----0-0-0-0---------0--0--
RE -2-----------0----------------------------0------
LA -------------------------3--------------2--------
MI -------------------------------------------------

-----------0------------0-2-2-2-2-0---0------0-------12-
---1---1-1---1-0-------0-----------3------0------12-----
---0—--0-0------------0-----------------0-----12--------
-------------------2/4----------------------------------
--------------------------------------------------------
-0---0--------------------------------------------------

2do Punteo 
MI -3-----3/7--2-----2/7---0-0-0-0—3-0-----------
SI -----0----------0-------1-1-1-1------3---3--3-
SOL---0----------2---------0-0-0-0---------0--0--
RE -2----------0--------------------------0------
LA ----------------------3--------------2--------
MI ----------------------------------------------

-----------0------------0-2-2-2-2-0--0------------------
---1---1-1---1-0------0------------3---3-0--------------
---0—--0-0-----------0---------------------2-0----------
------------------2/4--------------------------2-2-2-0/2 
-----------------------------------------------2-2-2-0/2 
-0---0--------------------------------------------------

Aviso: Este fichero es trabajo propio de su transcriptor y representa su interpretación personal de la canción. El material contenido en esta página es para exclusivo uso privado, por lo que se prohibe su reproducción o retransmisión, así como su uso para fines comerciales.
comentario del colaborador: Es un poco complicada pero si lo hacen bien se escuchara bien. Salu2

Califica esta canción


Comentarios en Facebook


Más canciones de Los Kjarkas: