Acordes y tablaturas para guitarra

Acordes y Tablaturas
Usuario: Password:

Buscar:
Acordes y Tablaturas >> Letra A >> Acordes de Audioslave >> Cochise
Tablatura de Cochise, Audioslave

Cochise

Audioslave








/= slide up
=slide down
b= bend
r= release

Intro:
You're pretty much on your own for the intro.
All I know is that during the very beginning,
all Tom does is mute the strings with a delay
on, just like in Rage's "The Ghost of Tom Joad."
The next part of the intro, I'm not so sure about.
It sounds like a closed wah strumming this:

e --------------------------
B --------------------------
G --------------------------
D --------------------------
A -7------------------------
E -0------------------------

I'm thinking maybe Tom also makes use of the Digitech
Whammy pedal that he has for the increse in pitch of
the intro. But don't take my word for the intro.

Verse:

e -------------------------------
B -------------------------------
G -------------------------------
D -------------------------------
A -/7---------------/7-----------
E ----10-7-10-7-3-0----10-7-3-0--

Pre-Chorus:

e -------------------------------
B -------------------------------
G -------------------------------
D -------------------7---8-------
A -/7----------------5---6-------
E ----10-7-10-7-8-0--------------

Chorus:

e ---------------------------
B ---------------------------
G ---------------------------
D --9-9----------------------
A --7-7----------------------
E --0-0-5-3-0--3-5--7-10-----

Solo:

Tremelo pick

e --------------------------|--------------------------
B --------------------------|--------------------------
G --------------------------|--------------------------
D -7br----------------------|-7br----------------------
A --------------------------|--------------------------
E --------------------------|--------------------------

e --------------------------|--------------------------
B --------------------------|--------------------------
G --------------------------|--------------------------
D -19br-19br-19br-19br------|-19br-19br-19br-19br------
A --------------------------|--------------------------
E --------------------------|--------------------------

Break:

e --------------------------|
B --------------------------|
G --------------------------|
D -9---9--------------------|  x4
A --------------------------|
E ---7---7------------------|

e --------------------------|
B --------------------------|
G --------------------------|
D --------------------------|  x3
A -7---7--------------------|
E ---0---0------------------|

then...
e --------------------------|
B --------------------------|
G --------------------------|
D -----7--------------------|  x4
A -7---5--------------------|
E ---0----------------------|

Structure:

Intro
Verse x 11
Pre-chorus
Chorus x 4
Solo
Verse x 7
Pre-chorus
Chorus x 8
Break
Chorus x 12

The end./= slide up
=slide down
b= bend
r= release

Intro:
You're pretty much on your own for the intro.
All I know is that during the very beginning,
all Tom does is mute the strings with a delay
on, just like in Rage's "The Ghost of Tom Joad."
The next part of the intro, I'm not so sure about.
It sounds like a closed wah strumming this:

e --------------------------
B --------------------------
G --------------------------
D --------------------------
A -7------------------------
E -0------------------------

I'm thinking maybe Tom also makes use of the Digitech
Whammy pedal that he has for the increse in pitch of
the intro. But don't take my word for the intro.

Verse:

e -------------------------------
B -------------------------------
G -------------------------------
D -------------------------------
A -/7---------------/7-----------
E ----10-7-10-7-3-0----10-7-3-0--

Pre-Chorus:

e -------------------------------
B -------------------------------
G -------------------------------
D -------------------7---8-------
A -/7----------------5---6-------
E ----10-7-10-7-8-0--------------

Chorus:

e ---------------------------
B ---------------------------
G ---------------------------
D --9-9----------------------
A --7-7----------------------
E --0-0-5-3-0--3-5--7-10-----

Solo:

Tremelo pick

e --------------------------|--------------------------
B --------------------------|--------------------------
G --------------------------|--------------------------
D -7br----------------------|-7br----------------------
A --------------------------|--------------------------
E --------------------------|--------------------------

e --------------------------|--------------------------
B --------------------------|--------------------------
G --------------------------|--------------------------
D -19br-19br-19br-19br------|-19br-19br-19br-19br------
A --------------------------|--------------------------
E --------------------------|--------------------------

Break:

e --------------------------|
B --------------------------|
G --------------------------|
D -9---9--------------------|  x4
A --------------------------|
E ---7---7------------------|

e --------------------------|
B --------------------------|
G --------------------------|
D --------------------------|  x3
A -7---7--------------------|
E ---0---0------------------|

then...
e --------------------------|
B --------------------------|
G --------------------------|
D -----7--------------------|  x4
A -7---5--------------------|
E ---0----------------------|

Structure:

Intro
Verse x 11
Pre-chorus
Chorus x 4
Solo
Verse x 7
Pre-chorus
Chorus x 8
Break
Chorus x 12

The end.


Que te parecio? Calificalo con estrellas!!

Rating: 4.8/10 (51 votos)

Este fichero es trabajo propio de su transcriptor y representa su interpretación personal de la canción. El material contenido en esta página es para exclusivo uso privado, por lo que se prohibe su reproducción o retransmisión, así como su uso para fines comerciales.


Deja tus comentarios:
Letras de canciones | Musica Independiente