Acordes y tablaturas para guitarra

Acordes y Tablaturas
Usuario: Password:

Buscar:
Acordes y Tablaturas >> Letra A >> Acordes de Audioslave >> I am the highway
Acordes de I am the highway, Audioslave

I am the highway

Audioslave






am.am7.c.dm.e.f.g.
Intro: Am [Am7]

F           C        G     Am
Pearls and swine bereft of me
F         C        G        Am
Long and weary my road has been 
       F           C Am
I was lost in the cities 
  G           C Am
Alone in the hills 
    F         C Am
No sorrow or pity 
     G         C Am
For leaving I feel

puente:
|-----------|
|-----------|
|-2---------|
|--2--------|
|---0--3----|
|-----------|


C        G              Dm
  I Am not your rolling wheels 
            Am     
  I Am the highway 

puente

C        G             Dm
  I Am not your carpet ride 
            E
  I Am the sky

Intro

F            C           G       Am
Friends and liars don't wait for me 
      F        C      G     Am
Cause i'll get on all by myself 
      F           C Am
I put millions of miles 
    G    C Am  
Under my heels 
    F          C Am
And still too close 
    G     C Am
To you I feel 

puente

C        G              Dm
  I Am not your rolling wheels 
            Am     
  I Am the highway 

puente

C        G             Dm
  I Am not your carpet ride 
            Am
  I Am the sky

puente
C        G              Dm
  I Am not your blowing wind
            Am     
  I Am the lightning 

puente

C        G             Dm
  I Am not your autumn moon
            E
  I Am the night... night... 

Solo:
   F              C                G              Am
e|-------------------------------|-----------------------------------
B|----------------5-8-5----------|-----------------------------------
G|---5---5----5-7-------7--5-----|---5----5---5-7-5-4----------------
D|-7---7----7----------------7-5-|-7----7---7---------5-7-------5-7--
A|-------------------------------|--------------------------5h7------
E|-------------------------------|-----------------------------------

   F              C                G              Am
e|-------------------------------|------------------------------------
B|----------------5-6-5----------|------------------------------------
G|---5----5---5-7-------7--5-----|---5----5---5-7---12-8---8-12-8---8-
D|-7----7---7----------------7-5-|-7----7---7------------7--------7---
A|-------------------------------|------------------------------------
E|-------------------------------|------------------------------------
                                           Armônicos * * * *  * * * *
   F                C       Am     G                C        Am
e|-------8-----------------------|-------8----------------------------8--
B|-10-10---10-10-8--5-8-8-5------|-10-10---10-10-8--5-8-8-10-10~~--10----
G|--------------------------7--5-|---------------------------------------
D|-------------------------------|---------------------------------------
A|-------------------------------|---------------------------------------
E|-------------------------------|---------------------------------------

   F                    C                        G                       Am
e|-12-12-10-10-8-8-7-7-10-10-8-8-7-7-------------------7-7-----------------
B|-----------------------------------10-10-8-8-----8-8-----10~~------------
G|---------------------------------------------9-9-------------------------
D|-------------------------------------------------------------------------
A|-------------------------------------------------------------------------
E|-------------------------------------------------------------------------
puente

C        G              Dm
  I Am not your rolling wheels 
            Am     
  I Am the highway 

puente

C        G             Dm
  I Am not your carpet ride 
            Am
  I Am the sky

puente

C        G              Dm
  I Am not your blowing wind
            Am     
  I Am the lightning 

puente

C        G             Dm
  I Am not your autumn moon
            E
  I Am the night... night...

Intro 

Que te parecio? Calificalo con estrellas!!

Rating: 7.9/10 (157 votos)

Este fichero es trabajo propio de su transcriptor y representa su interpretación personal de la canción. El material contenido en esta página es para exclusivo uso privado, por lo que se prohibe su reproducción o retransmisión, así como su uso para fines comerciales.


Comentario de arynirvana
Bue espero qe les guste y les sirva
Deja tus comentarios:
Letras de canciones | Musica Independiente