Enviado por: manuel266
Agrandar Letra
Reducir Letra
Imprimir


Otras Versiones de South Of Heaven:

slayer, South Of Heaven



SOUTH OF HEAVEN
As recorded by Slayer
(From the 1988 Album SOUTH OF HEAVEN)

   Intro
  
    Gtr I
             ~                  ~            ~
||--------------------------------|----------------------------------||
||o-------------------------------|---------------------------------o||
||-----------9----8-(8)---7---7-6-|----------9----8-(8)---7---6tr7---||
||------9-10---10-------9---8-----|-----9-10---10-------9---8--------||
||o---7---------------------------|---7-----------------------------o||
||--0-----------------------------|-0--------------------------------||
|
|   Gtr II
|            ~                  ~            ~
||--------------------------------|----------------------------------||
||o-------------------------------|---------------------------------o||
||-----------4----3-(3)---2---2-1-|----------4----3-(3)---2---1tr2---||
||------4--5----5-------4---3-----|-----4--5----5-------4---3--------||
||o---7---------------------------|---7-----------------------------o||
||--0-----------------------------|-0--------------------------------||


  Gtr I
              ~                  ~
|---------------------------------------|
|---------------------------------------|
|-------------9----8-(8)---7---7-6------|
|--------9-10---10-------9---8----------|
|------7--------------------------------|
|---0-----------------------------------|
|
| Gtr II
|             ~                  ~
|---------------------------------------|
|---------------------------------------|
|-------------4----3-(3)---2---2-1------|
|--------4--5----5-------4---3----------|
|------7--------------------------------|
|---0-----------------------------------|
|
| Gtr III
|---------------------------------------|
|-<12>-----------------------------<12>-|
|---------------------------------------|
|---------------------------------------|
|---------------------------------------|
|---------------------------------------|


                ~
|---------------------------------------|
|---------------------------------------|
|---------------9----8-(8)---7---6tr7---|
|----------9-10---10-------9---8--------|
|--------7------------------------------|
|----0----------------------------------|
|
|               ~
|---------------------------------------|
|---------------------------------------|
|---------------4----3-(3)---2---1tr2---|
|----------4--5----5-------4---3--------|
|--------7------------------------------|
|----0----------------------------------|
|
|--<12>---------------------------------|
|-(<12>)--------------------------------|
|---------------------------------------|
|---------------------------------------|
|---------------------------------------|
|---------------------------------------|


               ~~~~~~~                                    ~
|---------------------------------------------------------------|
|---------------------------------------------------------------|
|--------------9------------------------8--(8)------7---7-6-----|
|-------9-10-----------------10-------------------9---8---------|
|-----7---------------------------------------------------------|
|--0------------------------------------------------------------|
|
|              ~~~~~~~                                    ~
|---------------------------------------------------------------|
|---------------------------------------------------------------|
|--------------4------------------------3--(3)------2---2-1-----|
|-------4--5------------------5-------------------4---3---------|
|-----7---------------------------------------------------------|
|--0------------------------------------------------------------|
|
|              \0.5/   \0.5/      \0.5/     \0.5/
|---------------------------------------------------------------|
|-<5>--------(<5>)---(<5>)------(<5>)-----(<5>)-------------<5>-|
|---------------------------------------------------------------|
|---------------------------------------------------------------|
|---------------------------------------------------------------|
|---------------------------------------------------------------|


                 ~~~~~
|------------------------------------------||
|-----------------------------------9tr10--||
|----------------9------8-(8)---7----------||
|---------9-10-------10-------9---8--------||
|-------7----------------------------------||
|---0--------------------------------------||
|
|                ~~~~~
|------------------------------------------||
|------------------------------------------||
|----------------4------3-(3)---2---1tr2---||
|---------4--5--------5-------4---3--------||
|-------7----------------------------------||
|---0--------------------------------------||
|
|                ~~~~~
|--<5>---------(<5>)-----------------------||
|-(<5>)--------(<5>)-----------------------||
|------------------------------------------||
|------------------------------------------||
|------------------------------------------||
|------------------------------------------||


  Gtr I
|-----------------------------|-------------------------------|
|-----------------------------|-------------------------------|
|-----------------------------|-------------------------------|
|-2---------------------------|-2-----------------------------|
|-2---------------------------|-2-----------------------------|
|-0---------------------------|-0-----------------------------|
|
|                           ~
|-----------------------------|-------------------------------|
|-----------------------------|-------------------------------|
|---------4---3-(3)---2---2-1-|---------4---3-(3)---2---1tr2--|
|-----2-5---5-------4---3-----|-----2-5---5-------4---3-------|
|---2-------------------------|---2---------------------------|
|-0---------------------------|-0-----------------------------|


|-----------------------------|-------------------------------||
|-----------------------------|-------------------------------||
|-----------------------------|-------------------------------||
|-2---------------------------|-2-----------------------------||
|-2---------------------------|-2-----------------------------||
|-0---------------------------|-0-----------------------------||
|
|                           ~
|-----------------------------|-------------------------------||
|-----------------------------|-------------------------------||
|---------4---3-(3)---2---2-1-|---------4---3-(3)---2---1tr2--||
|-----2-5---5-------4---3-----|-----2-5---5-------4---3-------||
|---2-------------------------|---2---------------------------||
|-0---------------------------|-0-----------------------------||


 Verse
  PM------------------------------|   PM---------------------------------|
|-----------------------------------|--------------------------------------|
|-----------------------------------|--------------------------------------|
|-----------------------------------|--------------------------------------|
|-----------------------------------|--------------------------------------|
|-2-2-2-2-2-2-2-2--2--2-2-2-2-2-2-2-|-2-2-2-2-2-2-2-2--2--2-2-2-2----2-2-2-|
|-0-0-0-0-0-0-0-0--0--0-0-0-0-0-0-0-|-0-0-0-0-0-0-0-0--0--0-0-0-0----0-0-0-|
|
|                             ~
|-----------------------------------|--------------------------------------|
|-----------------------------------|--------------------------------------|
|---------4-----3-(3)---2---2-1-----|---------4-----3-(3)---2---1tr2-------|
|-----2-5-----5-------4---3---------|-----2-5-----5-------4---3------------|
|---2-------------------------------|---2----------------------------------|
|-0---------------------------------|-0------------------------------------|


  PM------------------------------|   PM-----------------------------|
|-----------------------------------|---------------------------------------|
|-----------------------------------|---------------------------------------|
|-----------------------------------|---------------------------------------|
|-----------------------------------|---------------------------------------|
|-2-2-2-2-2-2-2-2--2--2-2-2-2-2-2-2-|-2-2-2-2-2-2-2-2--2--2-2-2-2----2------|
|-0-0-0-0-0-0-0-0--0--0-0-0-0-0-0-0-|-0-0-0-0-0-0-0-0--0--0-0-0-0----0-12\--|
|
|                             ~
|-----------------------------------|---------------------------------------|
|-----------------------------------|---------------------------------------|
|---------4-----3-(3)---2---2-1-----|---------4-----3-(3)---2---1tr2--------|
|-----2-5-----5-------4---3---------|-----2-5-----5-------4---3-------------|
|---2-------------------------------|---2-----------------------------------|
|-0---------------------------------|-0-------------------------------------|


           ~                  ~            ~
|-------------------------------|---------------------------------|
|-------------------------------|---------------------------------|
|----------9----8-(8)---7---7-6-|----------9----8-(8)---7---6tr7--|
|-----9-10---10-------9---8-----|-----9-10---10-------9---8-------|
|---7---------------------------|---7-----------------------------|
|-0-----------------------------|-0-------------------------------|
|
|                             ~
|-------------------------------|---------------------------------|
|-------------------------------|---------------------------------|
|----------4----3-(3)---2---2-1-|----------4----3-(3)---2---1tr2--|
|-----2--5----5-------4---3-----|-----2--5----5-------4---3-------|
|---2---------------------------|---2-----------------------------|
|-0-----------------------------|-0-------------------------------|


           ~                  ~            ~
|-------------------------------|---------------------------------||
|-------------------------------|---------------------------------||
|----------9----8-(8)---7---7-6-|----------9----8-(8)---7---6tr7--||
|-----9-10---10-------9---8-----|-----9-10---10-------9---8-------||
|---7---------------------------|---7-----------------------------||
|-0-----------------------------|-0-------------------------------||
|
|                             ~
|-------------------------------|---------------------------------||
|-------------------------------|---------------------------------||
|----------4----3-(3)---2---2-1-|----------4----3-(3)---2---1tr2--||
|-----2--5----5-------4---3-----|-----2--5----5-------4---3-------||
|---2---------------------------|---2-----------------------------||
|-0-----------------------------|-0-------------------------------||


 Pre-Verse
                                 PM|
|------------------------------------|-----------------------------------------|
|------------------------------------|-----------------------------------------|
|------------------------------------|--------------------------------10-10\---|
|-2------------------------------3-3-|-2--------------------------(2)-10-10\---|
|-2------------------------------3-3-|-2--------------------------(2)--8--8\---|
|-0------------------------------1-1-|-0--------------------------(0)----------|
|
| PM--|    PM|   PM  PM|     PM------------|    PM|   PM  PM|      PM--------|
|------------------------------------|-----------------------------------------|
|------------------------------------|-----------------------------------------|
|------------------------------------|-----------------------------------------|
|------------------------(9)---------|------------------------(9)--------------|
|-------10-----8---7-----10----------|-------10-----8---7-----10---------------|
|-0-0-0--0-0-0-0-0-0-0-0--0--0-0-1-1-|-0-0-0--0-0-0-0-0-0-0-0--0---0---0--1--1-|


                                        PM-------------------------------|
|-------------------------------------|------------------------------------||
|-------------------------------------|------------------------------------||
|--------------------------------10---|-9-9-9--9-9-9-9-9-9-9-9--9--9-9-9-9-||
|-2------------------------------10---|-9-9-9--9-9-9-9-9-9-9-9--9--9-9-9-9-||
|-2-------------------------------8---|-7-7-7--7-7-7-7-7-7-7-7--7--7-7-7-7-||
|-0-----------------------------------|-0-0-0--0-0-0-0-0-0-0-0--0--0-0-0-0-||
|
| PM--|    PM|   PM  PM|     PM-------------|    PM|   PM  PM|     PM----|
|-------------------------------------|------------------------------------||
|-------------------------------------|------------------------------------||
|-------------------------------------|------------------------------------||
|------------------------(9)----------|------------------------(9)---------||
|-------10-----8---7-----10-----------|-------10-----8---7-----10----------||
|-0-0-0--0-0-0-0-0-0-0-0--0--0-0--1-1-|-0-0-0--0-0-0-0-0-0-0-0--0--0-0-1-1-||


 Verse
  Q=138
  Gtrs I, II
  PM----|   PM|   PM--------|   PM--|
|-------------------|--------------------|
|-------------------|--------------------|
|-------------------|--------------------|
|---------5-----3---|---------5-------3--|
|---------5-----3---|---------5-------3--|
|-0-0-0-0-3-0-0-1-0-|-0-0-0-0-3-0-0-0-1--|


  PM----|   PM|   PM--------|   PM--|
|-------------------|--------------------|
|-------------------|--------------------|
|-------------------|--------------------|
|---------5-----3---|---------5-------3--|
|---------5-----3---|---------5-------3--|
|-0-0-0-0-3-0-0-1-0-|-0-0-0-0-3-0-0-0-1--|


  PM----|   PM|   PM--------|   PM--|
|-------------------|--------------------|
|-------------------|--------------------|
|-------------------|--------------------|
|---------5-----3---|---------5-------3--|
|---------5-----3---|---------5-------3--|
|-0-0-0-0-3-0-0-1-0-|-0-0-0-0-3-0-0-0-1--|


  PM----|   PM|   PM--------|   PM--|
|-------------------|--------------------||
|-------------------|--------------------||
|-------------------|--------------------||
|---------5-----3---|---------5-------3--||
|---------5-----3---|---------5-------3--||
|-0-0-0-0-3-0-0-1-0-|-0-0-0-0-3-0-0-0-1--||


 Pre-Chorus
     PM----|   PM                PM|   PM|   PM--|
|---------------------|-------------------------------|
|---------------------|-------------------------------|
|---------------------|-------------------------------|
|---------------------|----------------------------5--|
|--4---------4--------|---4----------4-----4-------5--|
|--2-2-2-2-2-2-2-6\-0-|---2------2-2-2-2-2-2-2-2-2-3--|
|
| Gtr III
|                         ~~~~~~~~
|---------------------|-------------------------------|
|---------------------|-------------------------------|
|-11------------------|-(11(23))----------------------|
|---------------------|-------------------------------|
|---------------------|-------------------------------|
|---------------------|-------------------------------|


           PM|   PM|   PM|                PM|   PM--|
|---------------------------------|---------------------------||
|---------------------------------|---------------------------||
|---------------------------------|-------------------3-------||
|---------------------------------|-------------------3-------||
|---4----------4-----4------------|---4-------4-------1-------||
|---2------2-2-2-2-2-2-2-2-5\--0--|---2---2-2-2-2-2-0---3-2-1-||
|
|                              \7
|   ~~~~~~~~
|---------------------------------|---------------------------||
|---------------------------------|---------------------------||
|-(11(23))--------------------<3>-|-(<3>)---------------------||
|--------------------------x------|---------------------------||
|--------------------------x------|---------------------------||
|--------------------------x------|---------------------------||


  Q=63
  Gtr I
                ~                  ~            ~
|------------------------------------|----------------------------------|
|------------------------------------|----------------------------------|
|---------------9----8-(8)---7---7-6-|----------9----8-(8)---7---6tr7---|
|----------9-10---10-------9---8-----|-----9-10---10-------9---8--------|
|--------7---------------------------|---7------------------------------|
|-----0------------------------------|-0--------------------------------|
|
|                                  ~
|------------------------------------|----------------------------------|
|------------------------------------|----------------------------------|
|---------------4----3-(3)---2---2-1-|----------4----3-(3)---2---1tr2---|
|----------2--5----5-------4---3-----|-----2--5----5-------4---3--------|
|--------2---------------------------|---2------------------------------|
|-----0------------------------------|-0--------------------------------|
|
| Gtr III
| \2/ \5
|------------------------------------|----------------------------------|
|------------------------------------|----------------------------------|
|-2s==4------------------------------|----------------------------------|
|------------------------------------|----------------------------------|
|------------------------------------|----------------------------------|
|------------------------------------|----------------------------------|


           ~                  ~            ~
|-------------------------------|---------------------------------|
|-------------------------------|---------------------------------|
|----------9----8-(8)---7---7-6-|----------9----8-(8)---7---6tr7--|
|-----9-10---10-------9---8-----|-----9-10---10-------9---8-------|
|---7---------------------------|---7-----------------------------|
|-0-----------------------------|-0-------------------------------|
|
|                             ~
|-------------------------------|---------------------------------|
|-------------------------------|---------------------------------|
|----------4----3-(3)---2---2-1-|----------4----3-(3)---2---1tr2--|
|-----2--5----5-------4---3-----|-----2--5----5-------4---3-------|
|---2---------------------------|---2-----------------------------|
|-0-----------------------------|-0-------------------------------|


           PM|   PM  PM|    PM|          PM|      PM  PM  PM|    PM|
|------------------------------------|-----------------------------------||
|------------------------------------|-----------------------------------||
|-------------------------------10---|-9-----------------------------10--||
|-2--------9--------------------10---|-9--------9--------------------10--||
|-2-----10-----8---7-----10------8---|-7-----10-----8---7-----10------8--||
|-0----------0-0-0-0-0-0--0-0-0------|---0-0--0-0-0-0-0-0-0-0--0-0-0-----||
|
| PM--|    PM|   PM  PM|    PM-------------|    PM|   PM  PM|    PM|
|------------------------------------|-----------------------------------||
|------------------------------------|-----------------------------------||
|------------------------------------|-------------------------------10--||
|------------------------------------|-------------------------------10--||
|-------10-----8---7-----10----------|-------10-----8---7-----10------8--||
|-0-0-0--0-0-0-0-0-0-0-0--0-0-0--1-1-|-0-0-0--0-0-0-0-0-0-0-0--0-0-0-----||


 Verse
  Q=138
  Gtrs I, II
  PM----|   PM|   PM--------|   PM--|
|-------------------|--------------------|
|-------------------|--------------------|
|-------------------|--------------------|
|---------5-----3---|---------5-------3--|
|---------5-----3---|---------5-------3--|
|-0-0-0-0-3-0-0-1-0-|-0-0-0-0-3-0-0-0-1--|


  PM----|   PM|   PM--------|   PM--|
|-------------------|--------------------|
|-------------------|--------------------|
|-------------------|--------------------|
|---------5-----3---|---------5-------3--|
|---------5-----3---|---------5-------3--|
|-0-0-0-0-3-0-0-1-0-|-0-0-0-0-3-0-0-0-1--|


  PM----|   PM|   PM--------|   PM--|
|-------------------|--------------------|
|-------------------|--------------------|
|-------------------|--------------------|
|---------5-----3---|---------5-------3--|
|---------5-----3---|---------5-------3--|
|-0-0-0-0-3-0-0-1-0-|-0-0-0-0-3-0-0-0-1--|


  PM----|   PM|   PM--------|   PM--|
|-------------------|--------------------||
|-------------------|--------------------||
|-------------------|--------------------||
|---------5-----3---|---------5-------3--||
|---------5-----3---|---------5-------3--||
|-0-0-0-0-3-0-0-1-0-|-0-0-0-0-3-0-0-0-1--||


  Gtrs I, II
     PM----|   PM                PM|   PM|   PM--|
|---------------------|-------------------------------|
|---------------------|-------------------------------|
|---------------------|-------------------------------|
|---------------------|----------------------------5--|
|--4---------4--------|---4----------4-----4-------5--|
|--2-2-2-2-2-2-2-6\-0-|---2------2-2-2-2-2-2-2-2-2-3--|
|
| Gtr III
|                         ~~~~~~~~
|---------------------|-------------------------------|
|---------------------|-------------------------------|
|-11------------------|-(11(23))----------------------|
|---------------------|-------------------------------|
|---------------------|-------------------------------|
|---------------------|-------------------------------|


           PM|   PM|          PM|            PM|   PM--|
|--------------------------------------|-------------------------||
|--------------------------------------|-------------------------||
|--------------------------------------|-----------------3-------||
|--------------------------------------|-----------------3-------||
|---4----------4-------4---------------|--4------4-------1-------||
|---2------2-2-2-2-2---2------2-2-5\-0-|--2--2-2-2-2-2-0---3-2-1-||
|
|                      /0.5\              /
|   ~~~~~~~~           T
|--------------------------------------|-------------------------||
|---------------------------------0----|-------------------------||
|-(11(23))-----------(11(23))-----0----|-<3>---------------------||
|-------------------------------x------|-------------------------||
|-------------------------------x------|-------------------------||
|-------------------------------x------|-------------------------||


 Chorus
  Gtr I
  PM|      PM|       PM----|   ~    PM|      PM|       PM----|   ~
|----------------|----------------|----------------|----------------|
|----------------|----------------|----------------|----------------|
|----------------|----------------|----------------|----------------|
|-----6--5-----5-|-4---------2-3--|-----6--5-----5-|-4---------2-3--|
|-----6--5-----5-|-4--------------|-----6--5-----5-|-4--------------|
|-0-0-4--3-0-0-3-|-2-0-0-0-0------|-0-0-4--3-0-0-3-|-2-0-0-0-0------|
|
| Gtr II
| PM|      PM|       PM----|   ~    PM|      PM|       PM----|   ~
|----------------|----------------|----------------|----------------|
|----------------|----------------|----------------|----------------|
|----------------|-----------1-2--|----------------|-----------1-2--|
|-----6--5-----5-|-4--------------|-----6--5-----5-|-4--------------|
|-----6--5-----5-|-4--------------|-----6--5-----5-|-4--------------|
|-0-0-4--3-0-0-3-|-2-0-0-0-0------|-0-0-4--3-0-0-3-|-2-0-0-0-0------|


                                                       \0.5/            \7
  PM|      PM|       PM----|   ~    PM|      PM|
|----------------|----------------|------------------|----------------------||
|----------------|----------------|------------------|----------------------||
|----------------|----------------|--------------<5>-|----------------------||
|-----6--5-----5-|-4---------2-3--|-----6--5---------|----------------------||
|-----6--5-----5-|-4--------------|-----6--5---------|----------------------||
|-0-0-4--3-0-0-3-|-2-0-0-0-0------|-0-0-4--3-0-0-----|-6---------------(6)--||
|
| PM|      PM|       PM----|   ~    PM|      PM|             PM----|    ~~~
|----------------|----------------|------------------|----------------------||
|----------------|----------------|------------------|----------------------||
|----------------|-----------1-2--|------------------|---------------9-10---||
|-----6--5-----5-|-4--------------|-----6--5------5--|-4--------------------||
|-----6--5-----5-|-4--------------|-----6--5------5--|-4-------------7--8---||
|-0-0-4--3-0-0-3-|-2-0-0-0-0------|-0-0-4--3-0-0--3--|-2-----0-0-0-0--------||


  Gtr IV
                                \7
             ~~~~~~~~~~~~~~~                          ~~
|----------------------------------------|-----------------------------------|
|----------------------------------------|-----------------------------17----|
|--/9-------[9]-------([9])---([9])------|--------------------------------19-|
|-/10------------------------------------|-/14-------14--(14)s11-/16---------|
|----------------------------------------|-----------------------------------|
|----------------------------------------|-----------------------------------|
|
|   PM------------------------------|        PM----|       PM--------|
|----------------------------------------|-----------------------------------|
|----------------------------------------|-----------------------------------|
|----------------------------------------|-----------------------------------|
|-------------------------------------3--|------------6-----------------5----|
|-------------------------------------3--|------------6-----------------5----|
|---0-0-0-0--0--0-0-0---0---0---0---0-1--|---0-0-0-0--4----0---0---0-0--3----|


   ~~~
|-----------------------15---15h18-|-17-------17-17-(17)---(17)\-----/22-22--|
|----------------------------------|-----------------------------------------|
|-18s==============12--------------|-----------------------------------------|
|----------------------------------|-----------------------------------------|
|----------------------------------|-----------------------------------------|
|----------------------------------|-----------------------------------------|
|
|  PM----------------------|          PM----|         PM---------|
|----------------------------------|-----------------------------------------|
|----------------------------------|-----------------------------------------|
|----------------------------------|-----------------------------------------|
|-----------------------------3----|-----------6-------------------5---------|
|-----------------------------3----|-----------6-------------------5---------|
|--0-0-0-0-0-0-0-0--0-0--0-0--1----|--0-0-0-0--4------0--0---0---0-3---------|


               ~~~~~~
|-22b24-------22b24\---------------12-17-19-|
|-------------------------------------------|
|-------------------------------------------|
|-------------------------------------------|
|-------------------------------------------|
|-------------------------------------------|
|
|  PM----------------------------|
|-------------------------------------------|
|-------------------------------------------|
|-------------------------------------------|
|-----------------------------------3-------|
|-----------------------------------3-------|
|--0----0-0-0--0-----0-0-0-0-0-0-0--1-------|


|-24-21-19-21---21-19-17-17-16----17-17--------------------------|
|------------------------------19-------17---17h19p17---(17)s3---|
|----------------------------------------------------------------|
|----------------------------------------------------------------|
|----------------------------------------------------------------|
|----------------------------------------------------------------|
|
|  PM---------|                       PM--------------|
|----------------------------------------------------------------|
|----------------------------------------------------------------|
|----------------------------------------------------------------|
|-------------------6-------------------------------------5------|
|-------------------6-------------------------------------5------|
|--0--0--0----0-----4-----------------0----0-----0----0---3------|


   PM---------------------------------------------|
|-------------------------------------------------12-|
|----------------------------------12-12-14-12-14----|
|-------------------12-12-12-14-14-------------------|
|-12-12-14-12-14-12----------------------------------|
|----------------------------------------------------|
|----------------------------------------------------|
|
|  PM---------------------------------|
|----------------------------------------------------|
|----------------------------------------------------|
|----------------------------------------------------|
|-----------------------------------------3----------|
|-----------------------------------------3----------|
|--0--0--0--0--0--0--0--0-----0--0--0--0--1----------|


   ~~~~~
|-15b17---------15pb17==(15)rs==8---/15-16-14-|
|---------------------------------------------|
|---------------------------------------------|
|---------------------------------------------|
|---------------------------------------------|
|---------------------------------------------|
|
|  PM-------|             PM------|
|---------------------------------------------|
|---------------------------------------------|
|---------------------------------------------|
|-------------6-----------------------5-------|
|-------------6-----------------------5-------|
|--0----0-0-0-4-----------0---0-0-0---3-------|


|-17-15p==14---15---14-18-18---16-16p15---16-15-18---18p17-16---19-18-17-20-20-21-x-|
|-----------------------------------------------------------------------------------|
|-----------------------------------------------------------------------------------|
|-----------------------------------------------------------------------------------|
|-----------------------------------------------------------------------------------|
|-----------------------------------------------------------------------------------|
|
|  PM---------------------------------------------------------|
|-----------------------------------------------------------------------------------|
|-----------------------------------------------------------------------------------|
|-----------------------------------------------------------------------------------|
|-------------------------------------------------------------------3---------------|
|-------------------------------------------------------------------3---------------|
|--0----0----0----0-----0----0-----0----0-----0----0-----0----0-----1---------------|


|-22b24========(22)--(22)r\-------------|
|---------------------------------[0]---|
|---------------------------------------|
|---------------------------------------|
|---------------------------------------|
|---------------------------------------|
|
|  PM--------|         PM-------|
|---------------------------------------|
|---------------------------------------|
|---------------------------------------|
|----------------6-----------------5----|
|----------------6-----------------5----|
|--0-----0-0-0---4-----0----0-0-0--3----|


|----------------------------------------19b23==(19)--|
|-([0])-----------------------------------------------|
|-----------------------------------------------------|
|-----------------------------------------------------|
|---------17s13---------------------------------------|
|-----------------13s17-11s16\---15s17----------------|
|
|   PM-----------------------------------|
|-----------------------------------------------------|
|-----------------------------------------------------|
|-----------------------------------------------------|
|-------------------------------------------------3---|
|-------------------------------------------------3---|
|---0---0--0----0-----0--0--0--0--0--0-0--0-------1---|


|-(19)r====(19)-17pb19r=(17)---15---x----||
|-----------------------------------x-3s=||
|-----------------------------------x----||
|----------------------------------------||
|----------------------------------------||
|----------------------------------------||
|
|   PM-----|              PM------|
|----------------------------------------||
|----------------------------------------||
|----------------------------------------||
|----------------6------------------5----||
|----------------6------------------5----||
|---0--0-0---0---4--------0--0--0-0-3----||


 Verse
           \1/     \1/     \1/       \1/       \1/
                                                       ~~~~
|--------------------------------|-------------------------------|
|-17-----(17)----(17)----(17)----|-(17)------(17)----(17)--------|
|--------------------------------|-------------------------------|
|--------------------------------|-------------------------------|
|--------------------------------|-------------------------------|
|--------------------------------|-------------------------------|
|
|  PM----|         PM--|       PM------------|         PM---|
|--------------------------------|-------------------------------|
|--------------------------------|-------------------------------|
|--------------------------------|-------------------------------|
|--------------5-----------3-----|-----------------5----------3--|
|--------------5-----------3-----|-----------------5----------3--|
|--0-0-0---0---3---0---0---1---0-|---0---0-0---0---3---0--0-0-1--|


  \7
|--------------------|----------------------|
|--------------------|----------------------|
|--------------------|----------------------|
|--------------------|-------------------3--|
|--------------------|-------------------3--|
|-0------------------|-(0)---------0-0-0-1--|
|
| PM-----|   PM|   PM----------|   PM--|
|--------------------|----------------------|
|--------------------|----------------------|
|--------------------|----------------------|
|----------5-----3---|-----------5-------3--|
|----------5-----3---|-----------5-------3--|
|-0--0-0-0-3-0-0-1-0-|--0--0-0-0-3-0-0-0-1--|


  Gtrs I, II
  PM----|   PM|   PM--------|   PM--|
|-------------------|--------------------|
|-------------------|--------------------|
|-------------------|--------------------|
|---------5-----3---|---------5-------3--|
|---------5-----3---|---------5-------3--|
|-0-0-0-0-3-0-0-1-0-|-0-0-0-0-3-0-0-0-1--|


  PM----|   PM|   PM--------|   PM--|
|-------------------|--------------------||
|-------------------|--------------------||
|-------------------|--------------------||
|---------5-----3---|---------5-------3--||
|---------5-----3---|---------5-------3--||
|-0-0-0-0-3-0-0-1-0-|-0-0-0-0-3-0-0-0-1--||


 Pre-Chorus
     PM----|   PM                PM|   PM|   PM--|
|---------------------|-------------------------------|
|---------------------|-------------------------------|
|---------------------|-------------------------------|
|---------------------|----------------------------5--|
|--4---------4--------|---4----------4-----4-------5--|
|--2-2-2-2-2-2-2-6\-0-|---2------2-2-2-2-2-2-2-2-2-3--|
|
| Gtr III
|                         ~~~~~~~~
|---------------------|-------------------------------|
|---------------------|-------------------------------|
|-11------------------|-(11(23))----------------------|
|---------------------|-------------------------------|
|---------------------|-------------------------------|
|---------------------|-------------------------------|


           PM|   PM|   PM|           PM|   PM--|
|-------------------------------|---------------------------||
|-------------------------------|---------------------------||
|-------------------------------|-----------------3---------||
|-------------------------------|-----------------3---------||
|---4----------4-----4----------|-4------4--------1---------||
|---2------2-2-2-2-2-2-2-2-5\-0-|-2--2-2-2-2-2-0----3--2-1--||
|
|   ~~~~~~~~                                           ~~
|-------------------------------|---------------------------||
|--------------------------x\---|-x\------------------------||
|-(11(23))-----------------x\---|-x\------------------------||
|--------------------------x\---|-x\------------------------||
|-------------------------------|------------4s==19s==21----||
|-------------------------------|---------------------------||


 Chorus
    PM-|        PM|       PM----|   ~    PM|      PM|       PM----|   ~
|---------------------|----------------|----------------|----------------|
|---------------------|----------------|----------------|----------------|
|---------------------|-----------1-2--|----------------|-----------1-2--|
|--------6----5-----5-|-4---------2-3--|-----6--5-----5-|-4---------2-3--|
|--------6----5-----5-|-4--------------|-----6--5-----5-|-4--------------|
|---0--0-4----3-0-0-3-|-2-0-0-0-0------|-0-0-4--3-0-0-3-|-2-0-0-0-0------|
|
|   ~~~~
|---------------------|----------------|----------------|----------------|
|---------------------|----------------|----------------|----------------|
|----------x\---------|----------------|----------------|----------------|
|----------x\---------|----------------|----------------|----------------|
|-(21)-----x\---------|----------------|----------------|----------------|
|---------------------|----------------|----------------|----------------|


  PM|      PM|       PM----|   ~    PM|      PM|       PM----|   ~
|----------------|----------------|----------------|----------------||
|----------------|----------------|----------------|----------------||
|----------------|-----------1-2--|----------------|-----------1-2--||
|-----6--5-----5-|-4---------2-3--|-----6--5-----5-|-4---------2-3--||
|-----6--5-----5-|-4--------------|-----6--5-----5-|-4--------------||
|-0-0-4--3-0-0-3-|-2-0-0-0-0------|-0-0-4--3-0-0-3-|-2-0-0-0-0------||


 Guitar Solo
  Gtr IV
           ~~~~~~~~~~~~~~~~~~~~~~~~~~~~~~~~~~~~~~~~~~
|-------------------------------|-----------------------------------------|
|-15------15-----------15-------|-(15)-----15---(15)-------15\------------|
|-14b16---14b16--------14b16====|=(14)-----14---(14)-------14r\-----------|
|-------------------------------|-----------------------------------------|
|-------------------------------|-----------------------------------------|
|-------------------------------|-----------------------------------------|
|
| Gtrs I, II
|  PM---|          PM--|               PM-------------------------------|
|-------------------------------|-----------------------------------------|
|-------------------------------|-----------------------------------------|
|-------------------------------|-----------------------------------------|
|-------------------------------|-----------------------------------------|
|----------6-----5------------5-|---4-------------------------------------|
|--0----0--4-----3-0-0--0-----3-|---2--0-0--0-0---0--0-0-0--0---0-0-0-0-0-|


         ~~
|------------------------------------------------------|
|---------------------------------------------12-13-12-|
|---------------------------------12h14p12-14----------|
|------------------12-14-12h14-14----------------------|
|----10-12---12-14-------------------------------------|
|-12---------------------------------------------------|
|
|  PM------|                          PM------|
|------------------------------------------------------|
|------------------------------------------------------|
|------------------------------------------------------|
|------------------------------------------------------|
|-------------6--------------5--------------------5----|
|--0--0--0-0--4--------------3--------0--0--0--0--3----|


|------------------------15-15-------------------------------------------------------------|
|-13s15-17-18-17-18---17-------18p17-15p==13p12-13---12----12------------------------------|
|-------------------------------------------------------14----12h14-(14)b16====(14)r(14)---|
|------------------------------------------------------------------------------------------|
|------------------------------------------------------------------------------------------|
|------------------------------------------------------------------------------------------|
|
|              PM------------------------------------------------------------------------|
|------------------------------------------------------------------------------------------|
|------------------------------------------------------------------------------------------|
|------------------------------------------------------------------------------------------|
|------------------------------------------------------------------------------------------|
|-----2------------------------------------------------------------------------------------|
|-----4--------0----0-----0-----0-----0-0-----0----0-----0--0---------0------0--------0--0-|


|----------------------------------------------------------|
|----------------------------------------------------------|
|-----------------------------------15h17s19-19-17h==19-19-|
|------9h10-12-14p12-14s16-15h17-17------------------------|
|-9h10-----------------------------------------------------|
|----------------------------------------------------------|
|
| PM---|                             PM---|
|----------------------------------------------------------|
|----------------------------------------------------------|
|----------------------------------------------------------|
|----------------------------------------------------------|
|---------------6-----------5----------------------5-------|
|-0----0--------4-----------3--------0--0--0-------3-------|


   TP      TP TP
|------------------------------------------------------------------------------|
|--------------------------------------------------15b17==(15)--15-15----15-18-|
|-19---17h19-19-17h19-19-17h19-19-17h19---19-17b19-17-----(17)r----17b18-------|
|------------------------------------------------------------------------------|
|------------------------------------------------------------------------------|
|------------------------------------------------------------------------------|
|
|    PM---------------------------------------------------------------------|
|------------------------------------------------------------------------------|
|------------------------------------------------------------------------------|
|------------------------------------------------------------------------------|
|------------------------------------------------------------------------------|
|--4---------------------------------------------------------------------------|
|--2-0-----0--0-----0--0-----0--------0-0-----0-----0-------0-------0-----0--0-|


                    \5                   \4
|-----------------------------------------------------|
|-18-----(18)-----(18)---18-------(18)-(18)----19-----|
|-17b20==(17)-----(17)r--17b21====(17)-(17)r---18b23==|
|-----------------------------------------------------|
|-----------------------------------------------------|
|-----------------------------------------------------|
|
|  PM-----------|               PM-----------|
|-----------------------------------------------------|
|-----------------------------------------------------|
|-----------------------------------------------------|
|-----------------------------------------------------|
|-------------------6-----5---------------------5-----|
|--0-------0--0-0---4-----3-----0---0----0---0--3-----|


    \4                  \2/     \2/     \5
|----------------------------------------------------------13-17-17---|
|-(19)---(19)--(19)---(19)----(19)----(19)--------/15-15--------------|
|-(18)---(18)r-(18)---(18)----(18)----(18)---x/-----------------------|
|--------------------------------------------x/-----------------------|
|--------------------------------------------x/-----------------------|
|---------------------------------------------------------------------|
|
|      PM-----------------------------------------------------------|
|---------------------------------------------------------------------|
|---------------------------------------------------------------------|
|---------------------------------------------------------------------|
|---------------------------------------------------------------------|
|---2-----------------------------------------------------------------|
|---4--0---0-----0--0-------0-------0---0--0-0--0---0----0-----0----0-|


                    ~~~~~~~~~~~~~~~~~~~~~~
|-(17)b20==(17)r---17b20--------17b20====|
|----------------------------------------|
|----------------------------------------|
|----------------------------------------|
|----------------------------------------|
|----------------------------------------|
|
|   PM-----------|          PM--|
|----------------------------------------|
|----------------------------------------|
|----------------------------------------|
|----------------------------------------|
|-------------------6-----5------------5-|
|---0------------0--4-----3-0-0--0-----3-|


 ~~~~~~~~~~~~~~~~~~~~~~~~~~~~~~
|-(17)r-----17b20========(17)r-----------14-17-|
|----------------------------------------------|
|----------------------------------------------|
|----------------------------------------------|
|----------------------------------------------|
|----------------------------------------------|
|
|       PM----------------------------------|
|----------------------------------------------|
|----------------------------------------------|
|----------------------------------------------|
|----------------------------------------------|
|---4------------------------------------------|
|---2---0-0--0-----0-0-0---0---0-0-0-0-0--0--0-|


                            \7
   ~~~~~~
|-14tr17-----------------------|-------------------|-------------------||
|------------------------------|-------------------|-------------------||
|------------------------------|-------------------|-------------------||
|---------------------------0--|-(0)---------------|-(0)---------------||
|------------------------------|-------------------|-------------------||
|------------------------------|-------------------|-------------------||
|
|  PM--------|      PM----|
|------------------------------|-------------------|-------------------||
|------------------------------|-------------------|-------------------||
|------------------------------|-------------------|-------------------||
|------------------------------|-------------------|-------------------||
|--------------6--5---------5--|--4--4-4-4-4-4-4-4-|--4--4-4-4-4-4-4-4-||
|--0-----0-0-0-4--3-0-0-0-0-3--|--2--2-2-2-2-2-2-2-|--2--2-2-2-2-2-2-2-||


 Free Time
  H.=H
                         \0.5/   \0.5/   \0.5/   \0.5/   \0.5/   \0.5/   \0.5___
   ~~~~~~
|---------------:--[0]---------------------------------------------------------:
|---------------:--[0]---------------------------------------------------------:
|-17b20=========:=(17)-(17)----(17)----(17)----(17)----(17)----(17)----(17)----:
|---------------:--------------------------------------------------------------:
|---------------:--------------------------------------------------------------:
|---------------:--------------------------------------------------------------:
|
|---------------:--------------------------------------------------------------:
|---------------:--------------------------------------------------------------:
|---------------:--------------------------------------------------------------:
|---------------:--------------------------------------------------------------:
|--2------------:--(2)---------------------------------------------------------:
|--0------------:--(0)---------------------------------------------------------:


|-([0])--------:-([0])----*|
|-([0])--------:-([0])----*|
|-(17)---------:----------*|
|--------------:----------*|
|--------------:----------*|
|--------------:----------*|
|
|--------------:----------*|
|--------------:----------*|
|--------------:----------*|
|--------------:----------*|
|--(2)---------:--(2)-----*|
|--(0)---------:--(0)-----*|
Aviso: Este fichero es trabajo propio de su transcriptor y representa su interpretación personal de la canción. El material contenido en esta página es para exclusivo uso privado, por lo que se prohibe su reproducción o retransmisión, así como su uso para fines comerciales.

Califica esta canción


Comentarios en Facebook