Enviado por: lukini
Agrandar Letra
Reducir Letra

Acordes:
½ tono
| +0 |
½ tono
||
Volver

Otras Versiones de Talisman:


Rata blanca, Talisman

 Intro:


E------------------------------------------------------------
B -9-11-12-11-9----------------11-9-7----------------------
G --------------9-9-8-6-4-3-----------8-8-6-4-3-1-----------
D -------------------------------------------------------------
A--------------------------------------------------------------
E--------------------------------------------------------------

E-----------------------------------------
B-6-8-9-8-------9-12-11-9-12-11-9---9--------------------------
G---------6------------------------11--11--10-11---------
D--------------------------------------------------------------
A--------------------------------------------------------------
E--------------------------------------------------------------

E------------------------------------------------------------
B -9-11-12-11-9----------------11-9-7----------------------
G --------------9-9-8-6-4-3-----------8-8-6-4-3-1-----------
D -------------------------------------------------------------
A--------------------------------------------------------------
E--------------------------------------------------------------

E-----------------------------------------
B-6-8-9-8----9-12-11-9--12-11-9-12-11-9-12-11-9-----
G--------6-------------------------------------11-9-11-9
9-------------------------------------------------------11-9-11---
A--------------------------------------------------------------
E--------------------------------------------------------------



C#5                C5  
Fui como un ángel caido 

B#5             A#5
preso de mi libertad

       A5     B#5                C#5
hasta que te conoci por esas calles

C#5                   C5  
Fue por que quiso el destino

B#5             A#5
que te pudiera encontrar

       A5       B#5              C#5
Yo no se como seguir cuando no estas

    F#5                    B#5
Te agradezco que sanes mi alma

     A5                       G#5  G5
Sobrevivo encontrando en tus ooooojos
F#5          A5                 A#5     B#5   C#5
    el resplandor de un verde taaaaaaaliiisssman


        F#5                  B#5
Si al final esta vida es un sueño 

C#5                      A#5  A5       F#5
solo se que a tu lado me quiero despertar
     A5          C#5
Amanecer una vez mas...



Intro



C#5                C5  
Sabes cuando era muy joven 

B#5             A#5
nunca pense que el amor

       A5     B#5                C#5
me daria sin preguntar tantas respuestas

C#5                   C5  
Y hoy que me fio de pocos

B#5             A#5
Y hoy que reina la traición

       A5       B#5              C#5
se que alguien puede curar mi corazón

   F#5                    B#5
Te agradezco que sanes mi alma

     A5                       G#5  G5
Sobrevivo encontrando en tus ooooojos
F#5          A5                 A#5     B#5   C#5
    el resplandor de un verde taaaaaaaliiisssman


        F#5                  B#5
Si al final esta vida es un sueño 

C#5                      A#5  A5       F#5
solo se que a tu lado me quiero despertar
     A5          C#5
Amanecer una vez mas...


SOLO 





   F#5                    B#5
Te agradezco que sanes mi alma

     A5                       G#5  G5
Sobrevivo encontrando en tus ooooojos
F#5          A5                 A#5     B#5   C#5
    el resplandor de un verde taaaaaaaliiisssman


        F#5                  B#5
Si al final esta vida es un sueño 

C#5                      A#5  A5       F#5
solo se que a tu lado me quiero despertar
     A5          C#5
Amanecer una vez mas...
  
  C#5     C5         B#5
ohhhhh ohhhhhhhhh ohhhhhhhhh

C#5         B#5          A#5
ohhhhhhhh ohhhhhhhh ohhhhhhhh
   B#5       A#5        A5
ohhhhhhhh ohhhhhhhhh ohhhhhhh 
  F          F#5
ohhhhhh   ohhhhhhh

 C#5     C5         B#5
ohhhhh ohhhhhhhhh ohhhhhhhhh

C#5         B#5          A#5
ohhhhhhhh ohhhhhhhh ohhhhhhhh
   B#5       A#5        A5
ohhhhhhhh ohhhhhhhhh ohhhhhhh 
  F          F#5
ohhhhhh   ohhhhhhh
Aviso: Este fichero es trabajo propio de su transcriptor y representa su interpretación personal de la canción. El material contenido en esta página es para exclusivo uso privado, por lo que se prohibe su reproducción o retransmisión, así como su uso para fines comerciales.
comentario del colaborador: BUENO ES LA PRIMERA VEZ QUE HAGO ESTO Y LES QUERIA DECIR QUE ME COSTO MUCHO MAS QUE NADA EL ESTRVILLO ASI QUE SI NO SUENA MUY BIEN ESA PARTECITA PERDONENME Y EL SOLO NO LO PUSE PORQ NO LO PUEDO SACAR ENTERO SIEMPRE LO IMPOVISO:) BUENO ESPERO QUE LES GUSTE!!! Lukini

Califica esta canción


Comentarios en Facebook