Acordes y tablaturas para guitarra

Acordes y Tablaturas
Usuario: Password:

Buscar:
Acordes y Tablaturas >> Letra 3 >> Acordes de 30 Seconds To Mars >> the kill
Acordes de the kill, 30 Seconds To Mars

The kill

30 Seconds To Mars






  C   D   E   B   Asus  Em  
e|-x---x---x---x---0--------|
B|-0---0---0---0---0-----x--|
G|-5---7---9---4---2-----0--|
D|-5---7---9---4---2-----2--|
A|-3---5---7---2---0-----2--|
E|-----------------0-----0--|

C                        D
     What if I wanted to break
                         E
Laugh it all off in your face
              B
What would you do?

C                          D
     What if I fell to the floor
                          E
Couldn't take all this anymore
              B
What would you Do, Do, do?

C             D
Come break me down and bury me, bury me
E                 B
I Am finished with you

C                        D
     What if I wanted to fight
                       E
Beg for the rest of my life
              B
What would you do?
C
You say you wanted more
D
 What are you waiting for?
E                   B
I'm not running from you [from you]

C             D
Come break me down and bury me, bury me
E                  B
I Am finished with you
C          D
Look in my eyes You're killing me, killing me
E               B
All I wanted was you

Asus             B       Em     
   I tried to be someone else
                        C        D
   But nothing seems to change I know now  

    E         F#*      G*       A*
e|----------------------------------------|
B|--0-0--0--0-0--0--0--0--0--0--0--0--0---|
G|--9-9--9--9-11-11-11-12-12-12-14-14-14--|
D|--9-9--9--9-11-11-11-12-12-12-14-14-14--|
A|--7-7--7--7-9--9--9--10-10-12-12-12-12--|
E|----------------------------------------|
    This  is  who  I   really   Am

  Asus            B       Em                   C         D
Inside  I finally found myself  Fighting for a chance  I know now,
E           
This  is  who  I  really  Am

ºdespues viene esto

    B        B        B      C         
e|---------------------------------------|
B|-X--X-X---X--X-X---X--X-X--X-X_X_X_X_X-|
G|-9--9-9---9--9-9---9--9-9--5-5-5-5-5-5-| [x3]
D|-9--9-9---9--9-9---9--9-9--5-5-5-5-5-5-|
A|-7--7-7---7--7-7---7--7-7--3-3-3-3-3-3-|
E|-7--7-7---7--7-7---7--7-7--3-3-3-3-3-3-|

ahora

  G                    E            D   
e|-9--9--9--9--9--9--9/7--7---7--7-/5-5-5-|   
B|-9--9--9--9--9--9--9/7--7---7--7-/5-5-5-|  
G|11—11-11-11-11-11-11/9—-9---9—-9-/7-7-7-|  
D|11-11-11-11-11-11-11/9—-9---9—-9-/7-7-7-| 
A|----------------------------------------|
E|----------------------------------------|


C             D
Come break me down and bury me, bury me
E                  B
I Am finished with you
C          D
Look in my eyes You're killing me, killing me
E               [B]
All I wanted was you


esta cancion va dedicada a mi gran amor Liz
un saludo a mis amigos peje y pablo en cucuta vamos!!!!!

        


Que te parecio? Calificalo con estrellas!!

Rating: 5.3/10 (67 votos)

Este fichero es trabajo propio de su transcriptor y representa su interpretación personal de la canción. El material contenido en esta página es para exclusivo uso privado, por lo que se prohibe su reproducción o retransmisión, así como su uso para fines comerciales.


Deja tus comentarios:
Letras de canciones | Musica Independiente