Acordes y tablaturas para guitarra

Acordes y Tablaturas
Usuario: Password:

Buscar:
Acordes y Tablaturas >> Letra M >> Acordes de METALLICA >> The day that never comes
Tablatura de The day that never comes, METALLICA

The day that never comes

METALLICA






Esta medio incompleta porque no se el solo, me mate escribiendo, es mu largo y espero q lo difruten!!



Intro:

Guitar 1
e|-------12------12-------12-------12------14------14------12------12--------|
B|-----13--13--13--13---12--12---12--12--15--15--15--15--13--13--13--13------|
G|--14-------14------12--------12------12------12------14------14------------|
D|---------------------------------------------------------------------------|
A|---------------------------------------------------------------------------|
E|---------------------------------------------------------------------------|
Guitar 2
e|---------------------------------------------------------------------------|
B|---------------------------------------------------------------------------|
G|---------------------------------------------------------------------------|
D|---------------------------------------------------------------------------|
A|---------------------------------------------------------------------------|
E|---------------------------------------------------------------------------|

Guitar 1
e|-------12------12-------12-------12------14------14------12------12--------|
B|-----13--13--13--13---12--12---12--12--13--13--13--13--13--13--13--13------|
G|--14-------14------12--------12------12------12------14------14------------|
D|---------------------------------------------------------------------------|
A|---------------------------------------------------------------------------|
E|---------------------------------------------------------------------------|
Guitar 2
e|---------------------------------------------------------------------------|
B|---------------------------------------------------------------------------|
G|---------------------------------------------------------------------------|
D|---------------------------------------------------------------------------|
A|---------------------------------------------------------------------------|
E|---------------------------------------------------------------------------|

Guitar 1
e|-------12------12-------12-------12------14------14------12------12--------|
B|-----13--13--13--13---12--12---12--12--13--13--13--13--13--13--13--13------|
G|--14-------14------12--------12------12------12------14------14------------|
D|---------------------------------------------------------------------------|
A|---------------------------------------------------------------------------|
E|---------------------------------------------------------------------------|
Guitar 2
e|--------------------------------------------------------------------------|
B|--------------------------------------------------------------------------|
G|--7/9--------------------------------7/9----------------------------------|
D|--------7--7--7/9---5~-----------------------7--7--7/9---7~---------------|
A|--------------------------------------------------------------------------|
E|--------------------------------------------------------------------------|

Guitar 1
e|-------12------12-------12-------12------14------14------12------12--------|
B|-----13--13--13--13---12--12---12--12--13--13--13--13--13--13--13--13------|
G|--14-------14------12--------12------12------12------14------14------------|
D|---------------------------------------------------------------------------|
A|---------------------------------------------------------------------------|
E|---------------------------------------------------------------------------|
Guitar 2
e|--------------------------------------------------------------------------|
B|--------------------------------------------------------------------------|
G|--7/9--------------------------------7/9----------------------------------|
D|--------7--7--7/9---5~-----------------------7--7--7/9---7~---------------|
A|--------------------------------------------------------------------------|
E|--------------------------------------------------------------------------|

Guitar 1
e|-------12------12-------12-------12------14------14------12------12--------|
B|-----13--13--13--13---12--12---12--12--13--13--13--13--13--13--13--13------|
G|--14-------14------12--------12------12------12------14------14------------|
D|---------------------------------------------------------------------------|
A|---------------------------------------------------------------------------|
E|---------------------------------------------------------------------------|
Guitar 2
e|--------------------------------------------------------------------------|
B|--------------------------------------------------------------------------|
G|--7/9---------------------------------------------------------------------|
D|------7--7--7/9--5--5/7--7--7/9---9h10----9~-7/9---9/10---10p7----5--7----|
A|--------------------------------------------------------------------------|
E|--------------------------------------------------------------------------|

Guitar 1
e|-------12------12-------12-------12------14------14------------------------|
B|-----13--13--13--13---12--12---12--12--13--13--13--13----------------------|
G|--14-------14------12--------12------12------12-------------5-5-5--5-5-5---|
D|------------------------------------------------------------5-5-5--5-5-5---|
A|------------------------------------------------------------3-3-3--3-3-3---|
E|---------------------------------------------------------------------------|
Guitar 2
e|--------------------------------------------------------------------------|
B|--------------------------------------------------------------------------|
G|------------------------------------------------------------------------12|
D|--7--5h7/9-7h9/10-9h10/12--10--9h10p9--10-12-14-14-12/10--10-12-14-12-14--|
A|--------------------------------------------------------------------------|
E|--------------------------------------------------------------------------|

Guitar 1
      Am		                  G   	          Em                 C
e|---------------------------------------------------------------------------|
B|------1---0----------------0--------------1---0----1---------1---0---------|
G|------------2----------------0------------------0------------------0-------|
D|----2---2-----2----------0-----0--------2---2-----2--------2---2-----2-----|
A|--0-------------0------2--------------2------------------3-----------------|
E|---------------------3--------------0--------------------------------------|
Guitar 2
e|---------------------------------------------------------------------------|
B|---------------------------------------------------------------------------|
G|--14~----------------------------------------------------------------------|
D|---------------------------------------------------------------------------|
A|---------------------------------------------------------------------------|
E|---------------------------------------------------------------------------|

Guitar 1
      Am		                  G   	          Em                 C
e|---------------------------------------------------------------------------|
B|------1---0----------------0--------------1---0----1---------1---0---------|
G|------------2----------------0------------------0------------------0-------|
D|----2---2-----2----------0-----0--------2---2-----2--------2---2-----2-----|
A|--0-------------0------2--------------2------------------3-----------------|
E|---------------------3--------------0--------------------------------------|
Guitar 2
e|---------------------------------------------------------------------------|
B|---------------------------------------------------------------------------|
G|---------------------------------------------------------------------------|
D|---------------------------------------------------------------------------|
A|---------------------------------------------------------------------------|
E|---------------------------------------------------------------------------|

Guitar 1
      Am		                  G   	          Em                 C
e|---------------------------------------------------------------------------|
B|------1---0----------------0--------------1---0----1---------1---0---------|
G|------------2----------------0------------------0------------------0-------|
D|----2---2-----2----------0-----0--------2---2-----2--------2---2-----2-----|
A|--0-------------0------2--------------2------------------3-----------------|
E|---------------------3--------------0--------------------------------------|
Guitar 2
e|---------------------------------------------------------------------------|
B|---------------------------------------------------------------------------|
G|---------------------------------------------------------------------------|
D|---------------------------------------------------------------------------|
A|---------------------------------------------------------------------------|
E|---------------------------------------------------------------------------|

Guitar 1
      Am		                  G   	          Em                 C
e|---------------------------------------------------------------------------|
B|------1---0----------------0--------------1---0----1---------1---0---------|
G|------------2----------------0------------------0------------------0-------|
D|----2---2-----2----------0-----0--------2---2-----2--------2---2-----2-----|
A|--0-------------0------2--------------2------------------3-----------------|
E|---------------------3--------------0--------------------------------------|
Guitar 2
e|---------------------------------------------------------------------------|
B|---------------------------------------------------------------------------|
G|---------------------------------------------------------------------------|
D|---------------------------------------------------------------------------|
A|---------------------------------------------------------------------------|
E|---------------------------------------------------------------------------|


VERSE 1:

Guitar 1
     Am		                  G   	          Em                 C
e|---------------------------------------------------------------------------|
B|------1---0----------------0--------------1---0----1---------1---0---------|
G|------------2----------------0------------------0------------------0-------|
D|----2---2-----2----------0-----0--------2---2-----2--------2---2-----2-----|
A|--0-------------0------2--------------2------------------3-----------------|
E|---------------------3--------------0--------------------------------------|

Guitar 2
e|---------------------------------------------------------------------------|
B|---------------------------------------------------------------------------|
G|---------------------------------------------------------------------------|
D|---------------------------------------------------------------------------|
A|---------------------------------------------------------------------------|
E|---------------------------------------------------------------------------|

Guitar 1
     Am		                  G   	          Em                 C
e|---------------------------------------------------------------------------|
B|------1---0----------------0--------------1---0----1---------1---0---------|
G|------------2----------------0------------------0------------------0-------|
D|----2---2-----2----------0-----0--------2---2-----2--------2---2-----2-----|
A|--0-------------0------2--------------2------------------3-----------------|
E|---------------------3--------------0--------------------------------------|
Guitar 2
e|---------------------------------------------------------------------------|
B|---------------------------------------------------------------------------|
G|---------------------------------------------------------------------------|
D|---------------------------------------------------------------------------|
A|---------------------------------------------------------------------------|
E|---------------------------------------------------------------------------|

Guitar 1
     Am		                  G   	          Em                 C
e|---------------------------------------------------------------------------|
B|------1---0----------------0--------------1---0----1---------1---0---------|
G|------------2----------------0------------------0------------------0-------|
D|----2---2-----2----------0-----0--------2---2-----2--------2---2-----2-----|
A|--0-------------0------2--------------2------------------3-----------------|
E|---------------------3--------------0--------------------------------------|
Guitar 2
e|---------------------------------------------------------------------------|
B|---------------------------------------------------------------------------|
G|---------------------------------------------------------------------------|
D|---------------------------------------------------------------------------|
A|---------------------------------------------------------------------------|
E|---------------------------------------------------------------------------|

Guitar 1
     Am		                  G   	          Em                 C
e|---------------------------------------------------------------------------|
B|------1---0----------------0--------------1---0----1---------1---0---------|
G|------------2----------------0------------------0------------------0-------|
D|----2---2-----2----------0-----0--------2---2-----2--------2---2-----2-----|
A|--0-------------0------2--------------2------------------3-----------------|
E|---------------------3--------------0--------------------------------------|
Guitar 2
e|--------------------------------------------------------------------------|
B|--------------------------------------------------------------------------|
G|--------------------------------------------------------------------------|
D|-----------------------------------------------------------------x-x-x----|
A|-----------------------------------------------------------------x-x-x----|
E|-----------------------------------------------------------------x-x-x----|


CHORUS 1:

Guitar 1
e|---------------------------------------------------------------------------|
B|---------------------------------------------------------------------------|
G|--------------------------------------------------------9------5-5----5-5--|
D|-7---7--7--7--7--7---5---5--5--5--5--5---2---2--2--2----9------5-5----5-5--|
A|-7---7--7--7--7--7---5---5--5--5--5--5---2---2--2--2----7------3-3----3-3--|
E|-5---5--5--5--5--5---3---3--3--3--3--3---0---0--0--0-----------------------|
Guitar 2
e|---------------------------------------------------------------------------|
B|---------------------------------------------------------------------------|
G|--------------------------------------------------------9------5-5----5-5--|
D|-7---7--7--7--7--7---5---5--5--5--5--5---2---2--2--2----9------5-5----5-5--|
A|-7---7--7--7--7--7---5---5--5--5--5--5---2---2--2--2----7------3-3----3-3--|
E|-5---5--5--5--5--5---3---3--3--3--3--3---0---0--0--0-----------------------|

Guitar 1
e|---------------------------------------------------------------------------|
B|---------------------------------------------------------------------------|
G|--------------------------------------------------------9------5-5----5-5--|
D|-7---7--7--7--7--7---5---5--5--5--5--5---2---2--2--2----9------5-5----5-5--|
A|-7---7--7--7--7--7---5---5--5--5--5--5---2---2--2--2----7------3-3----3-3--|
E|-5---5--5--5--5--5---3---3--3--3--3--3---0---0--0--0-----------------------|
Guitar 2
e|---------------------------------------------------------------------------|
B|---------------------------------------------------------------------------|
G|--------------------------------------------------------9------5-5----5-5--|
D|-7---7--7--7--7--7---5---5--5--5--5--5---2---2--2--2----9------5-5----5-5--|
A|-7---7--7--7--7--7---5---5--5--5--5--5---2---2--2--2----7------3-3----3-3--|
E|-5---5--5--5--5--5---3---3--3--3--3--3---0---0--0--0-----------------------|

Guitar 1
e|---------------------------------------------------------------------------|
B|---------------------------------------------------------------------------|
G|--------------------------------------------------------9------5-5----5-5--|
D|-7---7--7--7--7--7---5---5--5--5--5--5---2---2--2--2----9------5-5----5-5--|
A|-7---7--7--7--7--7---5---5--5--5--5--5---2---2--2--2----7------3-3----3-3--|
E|-5---5--5--5--5--5---3---3--3--3--3--3---0---0--0--0-----------------------|
Guitar 2
e|---------------------------------------------------------------------------|
B|---------------------------------------------------------------------------|
G|--5~---------/7------4-------4h5p4-----------------------------5-5----5-5--|
D|--------------------------------------------5~-----------------5-5----5-5--|
A|---------------------------------------------------------------3-3----3-3--|
E|---------------------------------------------------------------------------|

Guitar 1
e|---------------------------------------------------------------------------|
B|---------------------------------------------------------------------------|
G|--------------------------------------------------------9------5-5----5-5--|
D|-7---7--7--7--7--7---5---5--5--5--5--5---2---2--2--2----9------5-5----5-5--|
A|-7---7--7--7--7--7---5---5--5--5--5--5---2---2--2--2----7------3-3----3-3--|
E|-5---5--5--5--5--5---3---3--3--3--3--3---0---0--0--0-----------------------|
Guitar 2
e|---------------------------------------------------------------------------|
B|---------------------------------------------------------------------------|
G|--5~---------/7------4-------4h5p4-----------------------------5-5----5-5--|
D|--------------------------------------------5~-----------------5-5----5-5--|
A|---------------------------------------------------------------3-3----3-3--|
E|---------------------------------------------------------------------------|

Guitar 1
e|---------------------------------------------------------------------------|
B|---------------------------------------------------------------------------|
G|---------------------------------------------------------------------------|
D|---------------------------------------------------------------------------|
A|---------------------------------------------------------------------------|
E|---------------------------------------------------------------------------|
Guitar 2
e|---------------------------------------------------------------------------|
B|---------------------------------------------------------------------------|
G|--------------------------------------------1~-----------------------------|
D|--------------------------------------1--2--2~-----------------------------|
A|-----------------------------0--2--3--------2~-----------------------------|
E|--------------------0--1--4------------------------------------------------|

Guitar 1
e|-------12------12-------12-------12------14------14------12------12--------|
B|-----13--13--13--13---12--12---12--12--13--13--13--13--13--13--13--13------|
G|--14-------14------12--------12------12------12------14------14------------|
D|---------------------------------------------------------------------------|
A|---------------------------------------------------------------------------|
E|---------------------------------------------------------------------------|
Guitar 2
e|--------------------------------------------------------------------------|
B|--------------------------------------------------------------------------|
G|--7/9--------------------------------7/9----------------------------------|
D|--------7--7--7/9---5~-----------------------7--7--7/9---7~---------------|
A|--------------------------------------------------------------------------|
E|--------------------------------------------------------------------------|

Guitar 1
e|-------12------12-------12-------12------14------14------12------12--------|
B|-----13--13--13--13---12--12---12--12--13--13--13--13--13--13--13--13------|
G|--14-------14------12--------12------12------12------14------14------------|
D|---------------------------------------------------------------------------|
A|---------------------------------------------------------------------------|
E|---------------------------------------------------------------------------|
Guitar 2
e|--------------------------------------------------------------------------|
B|--------------------------------------------------------------------------|
G|--7/9--------------------------------7/9----------------------------------|
D|--------7--7--7/9---5~-----------------------7--7--7/9---7~--------/9--7--|
A|--------------------------------------------------------------------------|
E|--------------------------------------------------------------------------|


VERSE 2:

Guitar 1
     Am		                  G   	          Em                 C
e|---------------------------------------------------------------------------|
B|------1---0----------------0--------------1---0----1---------1---0---------|
G|------------2----------------0------------------0------------------0-------|
D|----2---2-----2----------0-----0--------2---2-----2--------2---2-----2-----|
A|--0-------------0------2--------------2------------------3-----------------|
E|---------------------3--------------0--------------------------------------|

Guitar 2
e|---------------------------------------------------------------------------|
B|---------------------------------------------------------------------------|
G|---------------------------------------------------------------------------|
D|---------------------------------------------------------------------------|
A|---------------------------------------------------------------------------|
E|---------------------------------------------------------------------------|

Guitar 1
     Am		                  G   	          Em                 C
e|---------------------------------------------------------------------------|
B|------1---0----------------0--------------1---0----1---------1---0---------|
G|------------2----------------0------------------0------------------0-------|
D|----2---2-----2----------0-----0--------2---2-----2--------2---2-----2-----|
A|--0-------------0------2--------------2------------------3-----------------|
E|---------------------3--------------0--------------------------------------|
Guitar 2
e|---------------------------------------------------------------------------|
B|---------------------------------------------------------------------------|
G|---------------------------------------------------------------------------|
D|---------------------------------------------------------------------------|
A|---------------------------------------------------------------------------|
E|---------------------------------------------------------------------------|

Guitar 1
     Am		                  G   	          Em                 C
e|---------------------------------------------------------------------------|
B|------1---0----------------0--------------1---0----1---------1---0---------|
G|------------2----------------0------------------0------------------0-------|
D|----2---2-----2----------0-----0--------2---2-----2--------2---2-----2-----|
A|--0-------------0------2--------------2------------------3-----------------|
E|---------------------3--------------0--------------------------------------|
Guitar 2
e|---------------------------------------------------------------------------|
B|---------------------------------------------------------------------------|
G|---------------------------------------------------------------------------|
D|---------------------------------------------------------------------------|
A|---------------------------------------------------------------------------|
E|---------------------------------------------------------------------------|

Guitar 1
     Am		                  G   	          Em                 C
e|---------------------------------------------------------------------------|
B|------1---0----------------0--------------1---0----1---------1---0---------|
G|------------2----------------0------------------0------------------0-------|
D|----2---2-----2----------0-----0--------2---2-----2--------2---2-----2-----|
A|--0-------------0------2--------------2------------------3-----------------|
E|---------------------3--------------0--------------------------------------|
Guitar 2
e|--------------------------------------------------------------------------|
B|--------------------------------------------------------------------------|
G|--------------------------------------------------------------------------|
D|-----------------------------------------------------------------x-x-x----|
A|-----------------------------------------------------------------x-x-x----|
E|-----------------------------------------------------------------x-x-x----|


CHORUS 2:

Guitar 1
e|---------------------------------------------------------------------------|
B|---------------------------------------------------------------------------|
G|--------------------------------------------------------9------5-5----5-5--|
D|-7---7--7--7--7--7---5---5--5--5--5--5---2---2--2--2----9------5-5----5-5--|
A|-7---7--7--7--7--7---5---5--5--5--5--5---2---2--2--2----7------3-3----3-3--|
E|-5---5--5--5--5--5---3---3--3--3--3--3---0---0--0--0-----------------------|
Guitar 2
e|---------------------------------------------------------------------------|
B|---------------------------------------------------------------------------|
G|--------------------------------------------------------9------5-5----5-5--|
D|-7---7--7--7--7--7---5---5--5--5--5--5---2---2--2--2----9------5-5----5-5--|
A|-7---7--7--7--7--7---5---5--5--5--5--5---2---2--2--2----7------3-3----3-3--|
E|-5---5--5--5--5--5---3---3--3--3--3--3---0---0--0--0-----------------------|

Guitar 1
e|---------------------------------------------------------------------------|
B|---------------------------------------------------------------------------|
G|--------------------------------------------------------9------5-5----5-5--|
D|-7---7--7--7--7--7---5---5--5--5--5--5---2---2--2--2----9------5-5----5-5--|
A|-7---7--7--7--7--7---5---5--5--5--5--5---2---2--2--2----7------3-3----3-3--|
E|-5---5--5--5--5--5---3---3--3--3--3--3---0---0--0--0-----------------------|
Guitar 2
e|---------------------------------------------------------------------------|
B|---------------------------------------------------------------------------|
G|--------------------------------------------------------9------5-5----5-5--|
D|-7---7--7--7--7--7---5---5--5--5--5--5---2---2--2--2----9------5-5----5-5--|
A|-7---7--7--7--7--7---5---5--5--5--5--5---2---2--2--2----7------3-3----3-3--|
E|-5---5--5--5--5--5---3---3--3--3--3--3---0---0--0--0-----------------------|

Guitar 1
e|---------------------------------------------------------------------------|
B|---------------------------------------------------------------------------|
G|--------------------------------------------------------9------5-5----5-5--|
D|-7---7--7--7--7--7---5---5--5--5--5--5---2---2--2--2----9------5-5----5-5--|
A|-7---7--7--7--7--7---5---5--5--5--5--5---2---2--2--2----7------3-3----3-3--|
E|-5---5--5--5--5--5---3---3--3--3--3--3---0---0--0--0-----------------------|
Guitar 2
e|---------------------------------------------------------------------------|
B|---------------------------------------------------------------------------|
G|--5~---------/7------4-------4h5p4-----------------------------5-5----5-5--|
D|--------------------------------------------5~-----------------5-5----5-5--|
A|---------------------------------------------------------------3-3----3-3--|
E|---------------------------------------------------------------------------|

Guitar 1
e|---------------------------------------------------------------------------|
B|---------------------------------------------------------------------------|
G|--------------------------------------------------------9------5-5----5-5--|
D|-7---7--7--7--7--7---5---5--5--5--5--5---2---2--2--2----9------5-5----5-5--|
A|-7---7--7--7--7--7---5---5--5--5--5--5---2---2--2--2----7------3-3----3-3--|
E|-5---5--5--5--5--5---3---3--3--3--3--3---0---0--0--0-----------------------|
Guitar 2
e|---------------------------------------------------------------------------|
B|---------------------------------------------------------------------------|
G|--5~---------/7------4-------4h5p4-----------------------------5-5----5-5--|
D|--------------------------------------------5~-----------------5-5----5-5--|
A|---------------------------------------------------------------3-3----3-3--|
E|---------------------------------------------------------------------------|

Guitar 1
e|---------------------------------------------------------------------------|
B|---------------------------------------------------------------------------|
G|---------------------------------------------------------------------------|
D|---------------------------------------------------------------------------|
A|---------------------------------------------------------------------------|
E|---------------------------------------------------------------------------|
Guitar 2
e|---------------------------------------------------------------------------|
B|---------------------------------------------------------------------------|
G|--------------------------------------------1~-----------------------------|
D|--------------------------------------1--2--2~-----------------------------|
A|-----------------------------0--2--3--------2~-----------------------------|
E|--------------------0--1--4------------------------------------------------|

| /  slide up
|   slide down
| h  hammer-on
| p  pull-off
| ~  vibrato
| +  harmonic
| x  Mute note


Que te parecio? Calificalo con estrellas!!

Rating: 8.9/10 (1848 votos)

Este fichero es trabajo propio de su transcriptor y representa su interpretación personal de la canción. El material contenido en esta página es para exclusivo uso privado, por lo que se prohibe su reproducción o retransmisión, así como su uso para fines comerciales.


Deja tus comentarios:

Letras de METALLICA
Letras de canciones | Musica Independiente