Acordes y tablaturas para guitarra

Acordes y Tablaturas
Usuario: Password:

Buscar:
Acordes y Tablaturas >> Letra s >> Acordes de servando y florentino >> NO SALES DE MIS PENSAMIENTOS
Tablatura de NO SALES DE MIS PENSAMIENTOS, servando y florentino

NO SALES DE MIS PENSAMIENTOS

Servando y florentino






                                  DEDICA A TODAS EXPERIENCIAS
                                  PASADAS* Q EN ALGUN MOMENTO
                                  SE SIENTAN EXISTENTES!
                                    Y A MI FUTURA ESPOSA* JEJE!
NO SALES D MIS 
PENSAMIENTOS:  


HOla amigs esta vz les vengo con una transcripcion muy completa
y por eso suele ser un poco complicada, pro de eso se trata: de
LA PERFECCION en cada transcripcion.. 
Disfrutenla... cualkier duda [email protected]
-SUENA TOTALMENTE PARECIDA*

la cancion:
ACORDES:> G C D D* Em

INTRO:  

        E>------------------|
        A>------------------|
        D>------------------|
        G>------------------|
        B>-3/5--5--5h3--3-0-|
        e>-3/5--5--5h3--3-0-|

E>-3-------------------------|----------------------|
A>--2------------------------|----------------------|
D>---------------------------|----------------------|
G>----7----7--7--7-|-7-7-7---|-7----7--7--7---7-7-7-|
D>----8h10-10-10-8-|-8-7-7h8-|-8h10-10-10-8---8-7h8-|
e>---------------------------|----------------------|

E>------------------------------|
A>------------------------------|
D>------------------------------|
G>-7/----9--9--9--7-7-7-7-7-----|
D>-8h10/12-13-12-10-8-8-7-5h7-7-|
e>------------------------------|

ESTROFAS:

     G          C           G
E>-3-----|------------|--3--------|
A>-------|---3--------|-----------|
D>--0----|------------|---0-------|
G>-----2-|----0---0---|-------0---|
B>----3--|-------3----|------3----|
e>---3---|------0---3-|-----0---0-|
no se como   describir tanta   belleza

       C          C          G*              D
E>-----------|--------| |---------|--------------------|
A>-3---------|--3-----| |--2------|0-------------------|
D>-----------|--2-----| |---------|--------0-----0-----|
G>----0----0-|--0---0-| |---0---0-|-2---2--2---2-2---2-|
B>---1----1--|--1--1--| |------1--|----3---3--3--3--3--|
e>--0--0-0---|--0-0---| |-----0--0|---3----2-3---2-2--3|
si en realidad admirarte,          a mí nada me cuesta.

       G          C           G
E>-3---------|------------|-3---------|
A>-----------|--3---------|-----------|
D>--0--------|------------|-----------|
G>-----0-----|----0----0--|--0---0-0--|
B>----3------|-----1--1---|---3-3--3--|
e>---3-------|------0-----|----0---0--|
Me vuelve loco, tu sonrisa y tu mirada,
           C                  G            D / D*
E>---------------------|---3-----3----|---------------
A>---3-----------3---3-|---2-----2----|---------------
D>----2----------2---2-|---0-----0----|-0-------------
G>--------0------0---0-|---0-----0----|-2-2-2-2-2-2---
B>-------1-------1---1-|---3-----3----|-3-3-3-3-3-3---
e>------0--------0---0-|---3-----3----|-2-3-3/2-0h2-2-
las palabras de tu boca,  aunque no me digan naadaaa…


     C      G
E>------|-3------|
A>-3----|--------|
D>-2----|--0-----|
G>-0---0|-----0--|
B>-1--1-|----3---|
e>-0-0--|---3----|
Esto no es normal


        C           G
E>--------------|-3-----|
A>--3-----------|-------|
D>---2----------|--0----|
G>---------0----|-----0-|
B>--------1-----|----3--|
e>-------0------|---3---|
ni siquiera me has besado




       C         D
E>-------------|----|
A>----3------3-|----|
D>----2------2-|-0--|
G>----0------0-|-2--|
B>----1------1-|-3--|
e>----0------0-|-2--|
y ya me tienes tan mal.


      G               C
No sales de mis pensamientos,
          Em            C
estás en todos mis momentos,
              G           D
por más que no quiera pensarte
           C             D    B>-3h3-
siempre vuelvo a recordarte.  e>-3h2-
             G                C
Tan sólo un beso es lo que quiero,
           Em           C
pero al rechazo tengo miedo,
            G               D              C          D
deja demostrarte lo que siento.  Te juro que es sincero.


SOLO:

Acordes:(RASGUEO) D*-G-C-G



E>---------------------------|----------------------|
A>---------------------------|----------------------|
D>---------------------------|----------------------|
G>----7----7--7--7-|-7-7-7---|-7----7--7--7---7-7-7-|
D>----8h10-10-10-8-|-8-7-7h8-|-8h10-10-10-8---8-7h8-|
e>---------------------------|----------------------|


E>------------------------------|
A>------------------------------|
D>------------------------------|
G>--9--9---7-7-7--9-7-----------|
D>-12-12--10-8-8-12-8h10--------|
e>------------------------------|
 


G>---0-0-|
B>--3--3-|
e>-3---3-|

CONTINUA ESTROFA
          G                C          G
E>---3--------------|-------------|-3-----|
A>------------------|-------------|-------|
D>----0-------------|-2-----------|--0----|
G>-----------------0|--0---0------|-----0-|
B>--------3-------3-|---1-1-------|----3--|
e>---------3/4-3-3--|----0--3/4-3-|---0---|
Con mis palabras, no quisiera asustarte.



      G         C        G           D
E>----------|-------|---3-----|-------------|
A>----------|--3----|---2-----|-------------|
D>----------|--2----|---0-----|--0----------|
G>----0-0---|--0---0|---0---0-|--2---2--2---|
B>---3---3--|--1--1-|---3--3--|--3--3--3-3--|
e>--0-------|--0-0--|---3-3---|--2-2--3-2---|
A mí no me gustaría, que llegaras a alejarte.



      C         G
E>---------|-3------|
A>----3----|-2------|
D>----2----|-0------|
G>----0---0|-0---0--|
B>----1--1-|-3--3---|
e>----0-0--|-3-3----|
Esto no es normal

        C           G
E>--------------|-3------|
A>----3---------|-2------|
D>----2---------|-0------|
G>----0---0-----|-0-0----|
B>----1--1------|-3-3----|
e>----0-0-------|-3-3----|
ni siquiera me has besado



        C         D      D*/D
E>-------------|-----|----------|
A>----3------3-|-----|----------|
D>----2------2-|-0-0-|-0-0-0/-0-|
G>----0------0-|-2-2-|-2-2-2/-2-|
B>----1------1-|-3-3-|-3-3-3/-3-|
e>----0------0-|-2-2-|-3-3-3/-2-|
y ya me tienes tan mal.



      G               C
No sales de mis pensamientos,
          Em            C
estás en todos mis momentos,
              G           D
por más que no quiera pensarte
           C             D    B>-3h3-
siempre vuelvo a recordarte.  e>-3h2-
             G                C
Tan sólo un beso es lo que quiero,
           Em           C
pero al rechazo tengo miedo,
            G               D              C          D      G
deja demostrarte lo que siento.  Te juro que ees sinceroooooohooo
    C                    G                 D/D*
 ohhh uh nooooooo.  Uhhhh nooo nooou noooooo…   e>-3-|
         G                 C           
E>---3--------------|-------------|
A>------------------|-------------|
D>----0-------------|-2-----------|
G>-----------------0|--0---0------|
B>--------4-3-3---3-|---1-1-------|
e>--------4/3-3--3--|----0--4/3-3-|
Quiero que sepas

   C            G         
E>----------|-------|
A>----------|--3----|
D>----------|-------|
G>----0-----|----0-0|
B>---1-1----|---3-3-|
e>--0-0-----|--0-0--|
que siempre cuentas conmigo

             C
E>------|-----------|
A>------|-----3-----|
D>------|-----2-----|
G>------|-----0---0-|
B>------|-----1--1--|
e>------|-----0-0---|

no espero nada de ti
           G                    Em
E>-----------3-------3---|---------------|
A>-------------------2---|---------------|
D>------------0------0---|---------------|
G>----------------0--0---|---7--7/-7-7---|
B>---------------3-3-3---|--10-10/-8-7-8-|
e>--------------3----0h3-|---------------|

simplemente ser tu amigo...


Aqui pueden oir la cancion Online:
Link:
http://www.youtube.com/watch?v=2578mCtquiE&feature=related

(El video tiene sus derechos de autor, demosle las gracias) jeje 

Esta cancion es primera vz ke la oigo, y pud sacar las transcrip, ahy la tiens Brother... la cancion ke pedist q transcribiera!!! a enamorar a las chamas pss jeje


Que te parecio? Calificalo con estrellas!!

Rating: 6.9/10 (52 votos)

Este fichero es trabajo propio de su transcriptor y representa su interpretación personal de la canción. El material contenido en esta página es para exclusivo uso privado, por lo que se prohibe su reproducción o retransmisión, así como su uso para fines comerciales.


Comentario de anthonyhaw1
LA TAB fue creada x mi, recibi ayuda solo en los acordes.. los arreglos,punteos,intro, fueron hechos por mi..!
Deja tus comentarios:
Letras de canciones | Musica Independiente