Acordes y tablaturas para guitarra

Acordes y Tablaturas
Usuario: Password:

Buscar:
Acordes y Tablaturas >> Letra S >> Acordes de Scorpions >> Rock you like a hurricane
Tablatura de Rock you like a hurricane, Scorpions

Rock you like a hurricane

Scorpions






Intro:
Rhythm Gtr. 
Riff A (play 8 times) 
       E5                G5           A5          C5      D5 
|-------------------------------------------------------------------------| 
|-------------------------------------------------------------------------| 
|-------------------------------------------------------------------------| 
|-------9---9---9----------------------------------5-------7---7----------| 
|-------7---7---7--------5---5--------7---7--------3-------5---5----------| 
|------------------------3---3--------5---5-------------------------------|
Lead Gtr. 
Gtr.1 
|-------------------------------------------------------------------------| 
|---5-5-5-5-5----5-5----5-5----5-5-5-5--5-5-5-5-5----5-5---5-5---5-5-5-5--| 
|-------------------------------------------------------------------------| 
|-------------------------------------------------------------------------| 
|-------------------------------------------------------------------------| 
|-------------------------------------------------------------------------| 
Gtr.2 
|-------------------------------------------------------------------------| 
|-------------------------------------------------------------------------| 
|-------------------------------------------------------------------------| 
|-------------------------------------------------------------------------| 
|-------------------------------------------------------------------------| 
|-------------------------------------------------------------------------| 
 
Gtr.1 
|-------------------------------------------------------------------------| 
|--5--5--5--5--5---5--5----5--5----5--5--5--5----5--5--5--5--5---5--5-----| 
|-------------------------------------------------------------------------| 
|-------------------------------------------------------------------------| 
|-------------------------------------------------------------------------| 
|-------------------------------------------------------------------------| 
Gtr.2 
|-------------------------------------------------------------------------| 
|--12-12-12-12-12--12-12---12-12---12-12-12-12-- 12-12-12-12-12--12-12----| 
|-------------------------------------------------------------------------| 
|-------------------------------------------------------------------------| 
|-------------------------------------------------------------------------| 
|-------------------------------------------------------------------------| 
 
Gtr.1 
|--------------------------------------------------15---------------------| 
|----7h8p7-----5---------------------------15b17---------15b17~~~~--------| 
|-------------------7---4---3---2---0-------------------------------------| 
|-------------------------------------------------------------------------| 
|-------------------------------------------------------------------------| 
|-------------------------------------------------------------------------| 
Gtr.2 
|---10h12p10---------------------------------------10---------------------| 
|-------------12---10---9------------------10b12---------10b12~~~---------| 
|---------------------------9---7-----------------------------------------| 
|-----------------------------------9-------------------------------------| 
|-------------------------------------------------------------------------| 
|-------------------------------------------------------------------------| 
Gtr.1 
|---19---17h19p17--------------------------------22b24----22--19--22~~----| 
|------------------20--19---------20--------------------------------------| 
|--------------------------19b21-------19b21~~----------------------------| 
|-------------------------------------------------------------------------| 
|-------------------------------------------------------------------------| 
|-------------------------------------------------------------------------| 
Gtr.2 
|---16---14h16p14--12----------------------------17b19----17--16--17~~----| 
|----------------------16---------15--------------------------------------| 
|--------------------------14b16-------14b16~~----------------------------| 
|-------------------------------------------------------------------------| 
|-------------------------------------------------------------------------| 
|-------------------------------------------------------------------------|
(Gtr.2 out) 
Gtr.1 
|------22b24-----22b24------22------22b24-----22-----22b24-----22-----19--| 
|-------------------------------------------------------------------------| 
|-------------------------------------------------------------------------| 
|-------------------------------------------------------------------------| 
|-------------------------------------------------------------------------| 
|-------------------------------------------------------------------------|
Gtr.1 
|---22---20---19---17---20---19---17--------19h20p19p17--------22---------| 
|--------------------------------------20-----------------20--------12----| 
|-------------------------------------------------------------------------| 
|-------------------------------------------------------------------------| 
|-------------------------------------------------------------------------| 
|-------------------------------------------------------------------------|
Gtr.1 
|----------12-------12-------12-------12-------12-------12--------12------| 
|----15b17----15b17----15b17----15b17----15b17----15b17----15b17----------| 
|-------------------------------------------------------------------------| 
|-------------------------------------------------------------------------| 
|-------------------------------------------------------------------------| 
|-------------------------------------------------------------------------|
Gtr.1 
|---17--12----------------------------------------------------------------| 
|-----------16--12--------------------------------------------------------| 
|-------------------16--14--12--------------------------------------------| 
|-------------------------------14--12------------------------------------| 
|---------------------------------------14--13--12----10------------------| 
|----------------------------------------------------------10~~~~--------| 
 
     C5    E5 
It's early morning
    C5        E5  D5 
The sun comes out
     C5        E5 
Last night was shaking
    C5     D5 
And pretty loud 
  
My cat is purring 
And scratches my skin 
So what is wrong 
With another sin
The bitch is hungry 
She needs to tell 
So give her inches 
And feed her well 
More days to come 
New places to go 
I've got to leave 
It's time for a show

(with Riff A) 
E5         G5  A5  C5   D5         E5 
Here I am,         rock you like a hurricane
E5         G5  A5  C5   D5         E5 
Here I am,         rock you like a hurricane
My body is burning 
It starts to shout 
Desire is coming 
It breaks out loud 
Lust is in cages 
Till storm breaks loose 
Just have to make it 
With someone I choose 
The night is calling 
I have to go 
The wolf is hungry 
He runs the show 
He's licking his lips 
He's ready to win 
On the hunt tonight 
For love at first sting
Here I am, rock you like a hurricane 
Here I am, rock you like a hurricane 
Here I am, rock you like a hurricane 
Here I am, rock you like a hurricane 


Que te parecio? Calificalo con estrellas!!

Rating: 8.7/10 (519 votos)

Este fichero es trabajo propio de su transcriptor y representa su interpretación personal de la canción. El material contenido en esta página es para exclusivo uso privado, por lo que se prohibe su reproducción o retransmisión, así como su uso para fines comerciales.


Deja tus comentarios:
Letras de canciones | Musica Independiente