Acordes y tablaturas para guitarra

Acordes y Tablaturas
Usuario: Password:

Buscar:
Acordes y Tablaturas >> Letra B >> Acordes de Bulldog >> Más y más
Tablatura de Más y más, Bulldog

Más y más

Bulldog






Intro:
Em C G D x2

G|-----------------------------------------
D|-4-4/5-4-0-2-----------------4-4/5-4-0-2-
A|--------------3-2-2-2-3-2----------------
e|--------------------------3--------------

G|-----------------------------------------7-------------
D|----------------------------5--5/7-5-7-5---4-4/5-4-0-2-
A|-3-2-2-2-3-2----2-3-2-3-2-3----------------------------
e|-------------3-----------------------------------------

Em C G D x4
Una vida normal no se puede llevar
¿cual es el parametro de normalidad?
como me ves no estoy bien, llevo tiempo sin dormir
intento calmarme y vos pides
Mas y mas y mas y mas!
y vuelvo a enterrarme en el mismo infierno que,
ya me huele familiar,
y sigue sorprendiendo

A                 D
y la muerte esta golpeando
y ya nose
G                 C
y el corazon se me pone tiezo,
muy muy tiezo...

Em C G D x2

G|---7-----7----------------------------------------------
D|-5---4-5-----------------------------------5--5/7-5-7-5-
A|------------3-3-3-2-2-2-3-2----2-3-2-3-2-3--------------
e|----------------------------3---------------------------

Em C G D x4
Cantando me he morir, cantando me ha de enterrar
cantando me de ir al cielo o al infierno quizas
soy un caballo salvaje, que vive en libertad
que no conoce de reglas si se va muy...
Lejos lejos lejos lejos
Quedo aquel niño abandonado que...
hoy es dificil de comprender
tambien tan facil de querer.

A               D
Entendeme si te digo soy asi,
G                G
yo te quiero a mi manera nena!
(Si.. Mi Nena!)

G         C                  D
Si yo soy asi.. que voy a hacer..?
              G       F#        Em
si el tiempo atrás no va a volver
         C                 D
si la vida me hizo esta roca que soy!!

Para vos es muy facil hablar
de todo lo que hago mal
En mis zapatos, no podrias estar..
ni un segundo de tu puta vida

Solo

Em C G D x4
Yo la intento remar, vos quemas mi velas,
y esto se torna en un ir y venir,
que cada dia es peor, que cada dia es una guerra
que ya nadie escucha y hablas vos..
Y caigo, y caigo, y caigo, y caigo..
en una situacion en que quiero matarte y que?
que alguien me baje tranquilidad
para no terminar tan mal..

A                  D
O es q acaso no sabes lo q queres?
G                     C
Yo soi culpable de tu desconcierto!
Hay que infierno!!!

Si yo soy asi.. que voy a hacer..??
si el tiempo atras no va a volver
si la vida me hizo esta roca que soy!!

Para vos es muy facil hablar
de todo lo que hago mal,
en mis zapatos, no podrias estar..
ni un segundo de tu puta vida

G|-------5-4-7-7-7-7-7-7-
D|-2-2-2-5-4-7-7-7-7-7-7-
A|-2-2-2-3-2-5-5-5-5-5-5-  x4
e|-0-0-0-----------------


Que te parecio? Calificalo con estrellas!!

Rating: 5.9/10 (40 votos)

Este fichero es trabajo propio de su transcriptor y representa su interpretación personal de la canción. El material contenido en esta página es para exclusivo uso privado, por lo que se prohibe su reproducción o retransmisión, así como su uso para fines comerciales.


Deja tus comentarios:

Letras de Bulldog
Letras de canciones | Musica Independiente