Enviado por:
napm

The Beatles, Michelle

Capo III
para guiatarra clasica

Intro/Final del verso

e|----5-----5---5---5---53--3--1-------5--------5--|
B|----6-----6---6---6---6----3--1---3/5-5--3/5---5--|
G|-------6----5---4---3------3--2---3/5----3/5-5----|
D|-0------------------------------------------------|
A|----------------------------------0---------------|
E|--------------------------------------------------|

Coro

e|----2----2----1----1----0---0----1---1----0----0----5------5--|
B|----3----3----3----3----1---1----3---3----2----3----2------2--|
G|----2----2----0----0----2---2----0---0----2----1----2----2----|
D|-0-----0------------------------------------------------------|
A|----------------------3---3----2---2----0----2----0----0------|
E|------------3----3--------------------------------------------|

Verso
                         I
e|----1----1-----1----1-----1-----------------0----1----1----3--|
B|----3----3-----3----3-----4----3------3-----2----3----3----3--|
G|----2----2-----2----2-----2----3------3-----0----2----0----2--|
D|-0----------2-----0------------3----3----------0--------------|
A|-------3---------------------1----1-------0--------------0----|
E|------------------------1----------------------------3--------|

Solo electrico sin capo

e|------------------------------------------------------------------|
B|------------------------------------------------------------------|
G|------------------------------------------------------------------|
D|---------------8-10-11/6-6---5---5-6-8---------5-6----------6-----|
A|-8----8-10-11--------------------------6-8---8------5-7---5---8-7-|
E|------------------------------------------------------------------|
Aviso: Este fichero es trabajo propio de su transcriptor y representa su interpretación personal de la canción. El material contenido en esta página es para exclusivo uso privado, por lo que se prohibe su reproducción o retransmisión, así como su uso para fines comerciales.

Califica esta canción


Comentarios en Facebook