Enviado por: Master Oracle
Agrandar Letra
Reducir Letra
Imprimir


Otras Versiones de My Curse:









Killswitch Engage, My Curse

Intro:
D--------------------------------------------------------------------------|
A------------10------------------10-----------------6----------------6-----|
F----10----------10------10----------10-------5--------5------5---------5--|
C-8------8------------8------8-------------5-----5---------5------5--------|
G--------------------------------------------------------------------------|
C--------------------------------------------------------------------------|

Intro Continued:
D----------------------------------------------------------------|
A----------6---------------5--6------------6---------------5--6--|
F----5--------5------5---------------5--------5------5-----------|
C-7-----7---------7-----7---------7-----7---------7-----7--------| X2
G----------------------------------------------------------------|
C----------------------------------------------------------------|

Intro: With Overdrive/Distortion
D--------------------------------------------------------------------------|
A-----------10-------------------10-----------------6----------------6-----|
F----10------------10-----10------------10-----5----------5-----5--------5-|
C-8------8------8------8------8------8------5-----5----5-----5-----5---5---|
G--------------------------------------------------------------------------|
C--------------------------------------------------------------------------|
PM-      -      -      -      -      -      -     -    -     -     -   -

Intro: With Overdrive/Distortion Continued
D-------------------------------------|
A----------6-----------------5-----6--|
F----5-----------5-----5--------------|
C-7-----7-----7-----7-----7-----7-----| X2
G-------------------------------------|
C-------------------------------------|
PM-     -     -     -     -     -
Aviso: Este fichero es trabajo propio de su transcriptor y representa su interpretación personal de la canción. El material contenido en esta página es para exclusivo uso privado, por lo que se prohibe su reproducción o retransmisión, así como su uso para fines comerciales.

Califica esta canción


Comentarios en Facebook