Acordes y tablaturas para guitarra

Acordes y Tablaturas
Usuario: Password:

Buscar:
Acordes y Tablaturas >> Letra M >> Acordes de Mago de Oz >> sin ti, seria silencio
Tablatura de sin ti, seria silencio, Mago de Oz

Sin ti, seria silencio

Mago de Oz






hola, me costo algo pero ahi esta con todo y lo q hace el violin
y el requinto.
Un saludo para una niña muy linda que tiene los ojos más hermosos
que haya visto y que además canta precioso.
RRRRRR   U    U   BBBBBB   III
R     R  U    U   B     B   I 
R.R.R.   U    U   B.B.B.    I     
R     R  U    U   B     B   I
R     R   UUUU    BBBBBB   III


Intro: E F#m B A
       E F#m B

E            F#m
Desde que no estás
E       A
el escenario duerme
E           F#m           B
sólo con tu voz despertará

E           F#m
Si pudieras ver
E         A
lo mucho que me faltas
E              F#m            B
mi guitarra se ha muerto de pie

E                F#m
Cada noche es un acto de amor
      E                    A
y el concierto se hace una cama
      E           F#m
pero faltas tú, tu respiración
      B
es la nana que me calma

E        A     B
Sin ti sería silencio
E          A       B
sin ti se muere mi voz
E         A         B
sin ti tiritan de frío
E             A         B
los sueños de cada canción

       A
Porque si no estás
   E
quien me va a curar
   A    B   A   E
de mi  so  le  dad
        A
porque sin tu voz
       E           A    B    A     E
no me curaré, hoy quie  ro  can   tar

E            F#m
Desde que no estás
E              A
los minutos se hacen horas
E          F#m             B
la derrota silba una canción

E          F#m
Dime dónde estás
E        A
necesito que tus manos
E         F#m              B
maten mis miedos al aplaudir

     E            F#m
Cada noche yo te imagino aquí
    E            A
regalándome tu mirada
     E          F#m
abrazándome con brazos de luz
   B
tu sonrisa era mi almohada

E        A     B
Sin ti sería silencio
E          A       B
sin ti se muere mi voz
E         A         B
sin ti tiritan de frío
E             A         B
los sueños de cada canción

       A
Porque si no estás
   E
quien me va a curar
   A   B   A    E
de mi  so  le  dad
        A
porque sin tu voz
       E           A    B     A    E
no me curaré, hoy quie  ro   can   tar

C#m          B
  Dile a las estrellas
      E              F#m
ahora que eres eternidad
       A              E
que te busque un buen sitio
     A           B
una buena localidad

C#m         B
   Necesito oírte          
   E            F#m   (aquí hace un adornito que va así: e|-17-16-14-16-12|)

necesito que tu voz
E         A            E    B
 nunca se borre de mi ser

Lo del violin que esta allá abajo se acompaña con esto:
C#m, B, A, E
C#m, B, F#m
C#m, B, A, E
C#m, B, A

Esto lo hace el Violín: (escuchen bien la cancion para q sepan en donde
                        Va cada nota)

e|---11/12---11-12-11-9-7-4-7---7/9--7-9-7--------------|
B|-----------------------------------------7------------|
G|------------------------------------------------------|
D|------------------------------------------------------|
A|------------------------------------------------------|
E|------------------------------------------------------|

e|--9h11/12-----12-14-16/17-16-14--12-14/16-14-12-11-12-|
B|-------------12---------------------------------------|
G|------------------------------------------------------|
D|------------------------------------------------------|
A|------------------------------------------------------|
E|------------------------------------------------------|


Y el requinto se acompaña con los acordes del coro: E, A  B
Requinto:
e|-----------------7--—5p4-5-4p5h4----------------------|
B|------5---7p5-7/9-----------------7--5/7--------------|
G|---4h6------------------------------------------------|
D|------------------------------------------------------|
A|------------------------------------------------------|
E|------------------------------------------------------|

e|-------------7-----9-7-9—14^16--14--12/14-------------|
B|-------5—5h7-----9------------------------------------|
G|---4h6------------------------------------------------|
D|------------------------------------------------------|
A|------------------------------------------------------|
E|------------------------------------------------------|


E         A     B
Sin ti sería silencio
E         A        B
sin ti se muere mi voz
E         A        B
sin ti tiritan de frío
E             A         B
los sueños de cada canción

E         A     B
Sin ti sería silencio
E         A        B
sin ti se muere mi voz
E         A        B
sin ti tiritan de frío
E             A         B
los sueños de cada canción


A
Porque si no estás
       E
quien me va a curar
   A   B    A    E
de mi  so   le  dad
        A
porque sin tu voz
       E               A   B    A    E
no podré escuchar a un án  gel  can  tar

ah! Una sugerencia en el intro, no pisen la primera cuerda,
hagan el acorde pero déjenla al aire, x q el chavo q toca no lo hace
dudas o comentarios a mi correo: [email protected]


Que te parecio? Calificalo con estrellas!!

Rating: 5.9/10 (85 votos)

Este fichero es trabajo propio de su transcriptor y representa su interpretación personal de la canción. El material contenido en esta página es para exclusivo uso privado, por lo que se prohibe su reproducción o retransmisión, así como su uso para fines comerciales.


Deja tus comentarios:

Letras de Mago de Oz
Letras de canciones | Musica Independiente