Enviado por:
anthonyhaw1

Sin Bandera, Kilometros (intro)

Imprimir
                                        DEDICADA A LA MUJER
                                        MAS BELLA DEL MUNDO
Kilometros                              TE ADORO MI AMOR!!!


   NOTA: Disculpen algunos errores en la transcripcion pasada
no los habia notado, ya los corregi.

    1.     cuando salga un numero bajo el otro quiere decir que
           debemos tocar esas 2 cuerdas a la vez!!

    2. (/) "significa que arrastraremos el dedo sobre la cuerda
            hasta el siguiente traste"

INTRO: BUEN SONIDOO!!! 

Arpegio.. cuerda con cuerda!! sonidos a la vez!!



e----12--9-9-9-9/7--7-7--5-5----5-7-9----------------9--|>
B----12-----------------------5--------7-5-5/7---5/7----|>
G--------9-9-9-9/7--7-7--6-6----6-7-9-------------------|>
D-----------------------------7--------0----------------|>
A-0-----------------------------------------------------|>
E-------------------------------------------------------|>
      

e>--5-5/-12----5---------------0--|
B>---------------5---5---5-----0--|
G>-----------------6-- 6--6-6/-1--|
D>-----------------------------2--|
A>--4-4------------------------2--|
E>-------------------7------7/-0--|

ACORDES: aca muestro los acords en posiciones q suenan
un poco mas parecido!! Cualquier cosa sustituyan y convinen 
estos acordes con las transcripciones de algunos amigos 
transcriptores...


A varios cientos de kilometross...

  A=La    D=Re  C#=Do#  Bm=Sim   E
e-0----|---0---|---x---|--1---|--0--|
B-0----|---3---|---0---|--2---|--0--|
G-4----|---2---|---2---|--1---|--1--|
D-2----|---0---|---2---|--4---|--2--|
A-0----|---0---|---4---|--1---|--2--|
E-x----|---x---|---x---|--x---|--0--|

ESTA TRANSCRIPCION SE BASA MAS EN EL INTRO DE LA CANCION!
Q bonita Cancion!!  Comenten byeee

sean libres de hacer lo que les guste!!
Aviso: Este fichero es trabajo propio de su transcriptor y representa su interpretación personal de la canción. El material contenido en esta página es para exclusivo uso privado, por lo que se prohibe su reproducción o retransmisión, así como su uso para fines comerciales.
comentario del colaborador: CORRECCION DE MI ANTIGUA TRANSCRIPCION_! GRACIAS!

Califica esta canción


Comentarios en Facebook