Acordes y tablaturas para guitarra

Acordes y Tablaturas
Usuario: Password:

Buscar:
Acordes y Tablaturas >> Letra R >> Acordes de Red Hot Chili Peppers >> Snow (Hey Oh)
Bajo de Snow (Hey Oh), Red Hot Chili Peppers

Snow (Hey Oh)

Red Hot Chili Peppers






G|----------------|----------------|----------------|----------------|
D|----------------|----------------|----------------|----------------|
A|------467-------|------679-------|------467-------|------679-------|
E|4---------------|7---------------|4---------------|7-----------/7--|
"Come to the side..."
G|----------------|----------------|----------------|----------------|
D|----------------|----------------|----------------|------------64-|
A|------467-------|------679-------|------467-------|------679-------|
E|4---------------|7---------------|4---------------|7---------------|
 
G|----------------|----------------|----------------|----------------|
D|----------------|----------------|----------------|----------------|
A|------467-------|------679-------|------467-------|------679-------|
E|4---------------|7---------------|4---------------|7-----------7-6-|

G|----------------|----------------|----------------|----------------|
D|----------------|----------------|----------------|----------------|
A|---4-6-7-6-4----|----6-7-9-------|---4-6-7-6-4----|----------------|
E|4-------------4-|7---------7-6-7-|4-------------4-|7---6-4-2---2---| x2

G|----------------|----------------|----------------|----------------|
D|----------------|----------------|----------------|----------------|
A|------467-------|------679-------|------467-------|------679-------|
E|4---------------|7---------------|4---------------|7-----------x6--|

G|----------------|----------------|----------------|----------------|
D|----------------|----------------|----------------|----------------|
A|------467-------|------679-------|------467-------|------679--/11-|
E|4---------------|7---------------|4---------------|7---------------|

G|----------------|----------------|----------------|----------------|
D|----------------|----------------|----------------|----------------|
A|---4-6-7-6-4----|----6-7-9-------|---4-6-7-6-4----|----------------|
E|4-------------4-|7---------7-6-7-|4-------------4-|7---6-4-2--x2-2-|

G|----------------|----------------|----------------|----------------|
D|----------------|----------------|----------------|----------------|
A|---4-6-7-6-4----|----6-7-9-------|---4-6-7-6-4----|----------------|
E|4-------------4-|7---------7-6-7-|4-------------4-|7---6-4-2---2---|

Pré-Refrão ("The more i see, the less i know...")

G|----------------|----------------|----------------|----------------|
D|----------------|----------------|----6-------6---|----6-----------|
A|----7-------7---|----7-------9---|----------------|------------9---|
E|----------------|----------------|----------------|----------------|
  
G|----------------|
D|----------------|
A|----7-------7---|
E|----------------|

Refrão x4 (com finais 1, 2, 3, 4 e 5) ("Deep beneth the cover of montain...")

Assim > > > Na corda D soh Slap e na corda G soh Pop

G||11--11--11--x---1111111111--x---|6---6---6---x---6-6-6-6-6---x---|
D|.9---9---9---x---9-9-9-9-9---x---|4---4---4---x---4-4-4-4-4---x---|
A|.--------------------------------|--------------------------------|
E||--------------------------------|--------------------------------|
                                    ____________ final 1 ____________
G|13--13--13--x---1313131313--x---|13--13--13--x---13131313131313x-||
D|11--11--11--x---1111111111--x---|11--11--11--x---11111111111111x-.|
A|--------------------------------|--------------------------------.|
E|--------------------------------|--------------------------------||

  ___________ final _____________     ___________ final _____________
G|1313131313--x---1313--13131313--| G|1313131313--x---1313--1313131313|
D|1111111111--x---1111--11111111--| D|1111111111--x---1111--1111111111|
A|--------------------------------| A|--------------------------------|
E|--------------------------------| E|--------------------------------|

  ___________ final _____________     ___________ final _____________
G|13--13--13--x---1313--13131313--| G|13--13--13--x---1313131313------|
D|11--11--11--x---1111--11111111--| D|11--11--11--x---1111111111------|
A|--------------------------------| A|--------------------------------|
E|--------------------------------| E|--------------------------------|

Verso:

G|----------------|----------------|----------------|----------------|
D|----------------|----------------|----------------|----------------|
A|------467-------|------679-------|------467-------|------679-------|
E|4---------------|7---------------|4---------------|7-----------7---|
  
G|----------------|----------------|----------------|----------------|
D|----------------|----------------|----------------|-----------x6-6-|
A|------467-------|------679-------|------467-------|------679-------|
E|4---------------|7---------------|4---------------|7---------------|

G|----------------|----------------|----------------|----------------|
D|----------------|----------------|----------------|----------------|
A|------467-------|------679-------|------467-------|------679-------|
E|4---------------|7---------------|4---------------|7-----------764-|

G|----------------|----------------|----------------|----------------|
D|----------------|----------------|----------------|----------------|
A|---4-6-7-6-4----|----6-7-9-------|---4-6-7-6-4----|----------------|
E|4-------------4-|7---------7-6-7-|4-------------4-|7---6-4-2--x2-2-|

G|----------------|----------------|----------------|----------------|
D|----------------|----------------|----------------|----------------|
A|---4-6-7-6-4----|----6-7-9-------|---4-6-7-6-4----|----------------|
E|4-------------4-|7---------7-6-7-|4-------------4-|7---6-4-2---2---|

Pré-refrão:
 
G|----------------|----------------|----------------|----------------|
D|----------------|----------------|----6-------6---|----6-----------|
A|----7-------7---|----7-------9---|----------------|------------9---|
E|----------------|----------------|----------------|----------------|
    
G|----------------|----------------|
D|----------------|----------------|
A|----7-------7---|----7-------7---|
E|----------------|----------------|

CHORUS -> Ateh o final da música, vai alterando os finais, esse eh o último riff
   
G|11--11--11--x---1111111111--x---|6---6---6---x---6-6-6-6-6---x---|
D|9---9---9---x---9-9-9-9-9---x---|4---4---4---x---4-4-4-4-4---x---|
A|--------------------------------|--------------------------------|
E|--------------------------------|--------------------------------|
       
G|----------------|
D|----------------|
A|4~--------------|
E|----------------|


Que te parecio? Calificalo con estrellas!!

Rating: 7.2/10 (172 votos)

Este fichero es trabajo propio de su transcriptor y representa su interpretación personal de la canción. El material contenido en esta página es para exclusivo uso privado, por lo que se prohibe su reproducción o retransmisión, así como su uso para fines comerciales.


Deja tus comentarios:

Letras de Red Hot Chili Peppers
Letras de canciones | Musica Independiente