Enviado por: Juan Pablo Gonzalez
Agrandar Letra
Reducir Letra
Imprimir


Otras Versiones de No more sorrow:




Linkin Park, No more sorrow

-------------7---5---7-8-7---
-------7--8------------------
----9------------------------ repeat 2 times then....
-----------------------------
-----------------------------
-----------------------------



------------------------------------- 
-------------------------------------
------------------------------------- repeat 2 times then...
--222222---222222---222222---222222-- 
--222222---222222---222222---222222--
--222222---222222---222222---222222--

(note: the sound distorsion caused at the 4th time is just the bass and batery sound the guitar sound is the same)

-------------------------------
-------------------------------
-------------------------------
--10------9------2-------------
--10-(x3)-9-(x3)-2-(x7)--------
--10------9------2-------------

later i will write the rest of the song....sorry
Aviso: Este fichero es trabajo propio de su transcriptor y representa su interpretación personal de la canción. El material contenido en esta página es para exclusivo uso privado, por lo que se prohibe su reproducción o retransmisión, así como su uso para fines comerciales.

Califica esta canción


Comentarios en Facebook