Acordes y tablaturas para guitarra

Acordes y Tablaturas
Usuario: Password:

Buscar:
Acordes y Tablaturas >> Letra Z >> Acordes de Zoe >> Via Lactea
Bajo de Via Lactea, Zoe

Via Lactea

Zoe






E|----------8-7-8^--------3^-0^-|

Coro

G|--------------------------------------------------------|
D|--------------------------------------------------------|
A|-3-33-3/5-55-5/2-22-2/3-33-3/0-00-0/3-33-3--------------|
E|-------------------------------------------3-33-33-33-3-|

G|----------------------------------------------|
D|----------------------------------------------|
A|333333------333333------333333------333/555---|
E|------333333------333333------333333-------0^-|

Bridge

G|------------|
D|------------|
A|-7^---------|
E|------------|

G|------------------------------|
D|------------------------------|  X2
A|-7-9-10-9--------7-5-7^-------|
E|----------8-7-8^--------8-7-8-|

Verso 2

G|------------------------------|
D|------------------------------|  X3
A|-7-9-10-9--------7-5-7^-------|
E|----------8-7-8^--------8-7-8-|

G|------------------------------|
D|------------------------------|
A|-7-9-10-9--------7-5-7^-------|
E|----------8-7-8^--------3^-0^-|

Coro

G|--------------------------------------------------------|
D|--------------------------------------------------------|
A|-3-33-3/5-55-5/2-22-2/3-33-3/0-00-0/3-33-3--------------|
E|-------------------------------------------3-33-33-33-3-|

G|----------------------------------------------|
D|----------------------------------------------|
A|333333------333333------333333------333/555---|
E|------333333------333333------333333-------0^-|

Solo

G|------------------------------|
D|------------------------------|  X2
A|-7-9-10-9--------7-5-7^-------|
E|----------8-7-8^--------8-7-8-|

G|------------------------------|
D|------------------------------|  X2
A|-3^--5^--2^--3^--0^--3^-------|
E|-------------------------0^---|

Outro

G|---------------------------------------------------|
D|---------------------------------------------------|
A|333333------333333------333333------3^--5^---------|
E|------333333------333333------333333--------0^--0^-|


Que te parecio? Calificalo con estrellas!!

Rating: 6.7/10 (96 votos)

Este fichero es trabajo propio de su transcriptor y representa su interpretación personal de la canción. El material contenido en esta página es para exclusivo uso privado, por lo que se prohibe su reproducción o retransmisión, así como su uso para fines comerciales.


Deja tus comentarios:
Letras de canciones | Musica Independiente