Acordes y tablaturas para guitarra

Acordes y Tablaturas
Usuario: Password:

Buscar:
Acordes y Tablaturas >> Letra g >> Acordes de gipsy kings >> volare
Acordes de volare, gipsy kings

Volare

Gipsy kings






dososm.fasosm.la.mi.si7.solsosm.solsosm7.
   pienso que un suño parecido no volvera mas
       Mi                                            Fa#m
E --------0----------------------------------------------2---
B -----0---------------------------------------------2-------
G ----1---------------------------------------------2--------
D ---2---------------------------------------------4---------
A --2---------------------------------------------4----------
E -0---------------------------------------------2-----------


   Y me pintaba las manos y la cara de azul
                                           Si7
E -----------------------------------------1---1--------------
B ----------------------------------------0-0-0---------------
G ---------------------------------------2---2----------------
D --------------------------------------1---------------------
A -------------------------------------2----------------------
E ------------------------------------0-----------------------

    Y de improviso el viento rápido me llevó

E --------------------------------------------4---4-----------
B ------------------------------------------4-4--4------------
G -----------------------------------------4----4-------------
D ----------------------------------------6-------------------
A ---------------------------------------6--------------------
E --------------------------------------4---------------------

                                    Si7
Y me eché a volar en el cielo infinito.

Fa#m          Si7
Volare oh oh
              Mi 
Cantare oh oh oh oh
Fa#m       Si7        Mi 
Nel blu dipinto di blu
Fa#m      Si7        Mi 
felice di stare lassu

Do#m
Y volando, volando feliz
                                            Sol#m
Yo me encuentro más alto, más alto que el sol.
        Sol#m7                                Do#m
En un instante el mundo se aleja despacio de Mi 
            La                                 Si7
Una música dulce tocada sólo para mí.


Fa#m          Si7
Volare oh oh
              Mi 
Cantare oh oh oh oh
Fa#m       Si7        Mi 
Nel blu dipinto di blu
Fa#m      Si7        Mi 
felice di stare lassu


Fa#m          Si7
Volare oh oh
              Mi 
Cantare oh oh oh oh
Fa#m       Si7        Mi 
Nel blu dipinto di blu
Fa#m      Si7        Mi 
felice di stare lassu

Mi                                       Fa#m
Pienso que un sueño parecido no volverá más.
                                     Si7
Y me pintaba las manos y la cara de azul.
                                  Sol#m
Y de improviso el viento rápido me llevó
                        Do#m
Y me eché a volar en el cielo infinito.

Fa#m          Si7
Volare oh oh
              Mi 
Cantare oh oh oh oh
Fa#m       Si7        Mi 
Nel blu dipinto di blu
Fa#m      Si7        Mi 
felice di stare lassu


Fa#m       Si7        Mi 
Nel blu dipinto di blu
Fa#m      Si7        Mi 
felice di stare lassu


Fa#m       Si7        Mi 
Nel blu dipinto di blu
Fa#m      Si7        Mi 
felice di stare lassu


Fa#m       Si7        Mi 
Nel blu dipinto di blu
Fa#m      Si7        Mi 
felice di stare lassu



Fa#m       Si7        Mi 
Nel blu dipinto di blu
Fa#m      Si7        Mi 
felice di stare lassu

     se acaba en "Mi"
 

Que te parecio? Calificalo con estrellas!!

Rating: 7.1/10 (77 votos)

Este fichero es trabajo propio de su transcriptor y representa su interpretación personal de la canción. El material contenido en esta página es para exclusivo uso privado, por lo que se prohibe su reproducción o retransmisión, así como su uso para fines comerciales.


Comentario de pava13
fuente original lacuerda.net
Deja tus comentarios:
Letras de canciones | Musica Independiente