Acordes y tablaturas para guitarra

Acordes y Tablaturas
Usuario: Password:

Buscar:
Acordes y Tablaturas >> Letra j >> Acordes de joaquin rodrigo >> concierto de aranjuez
Tablatura de concierto de aranjuez, joaquin rodrigo

Concierto de aranjuez

Joaquin rodrigo






E||------------------------------|-------------------------------|
B||----3------3------3------3----|---------3---------------0-----|
G||----4------4------4------4----|---------4----------0-2----2h0-|
D||--4-4----4-4----4-4----4-4----|--4h2-4---------4-4------------|
A||--2-2----2-2----2-2----2-2----|--2-----------2-------4--------|
E||------------------------------|-------------------------------|


                                                               
----------------------------|---------------------------------|
---------3---------------2--|---------------2-----------------|
---------2----------2-4-----|--2h0-0--------0-----------------|
--4h2-4---------4-5---------|--------4-2-------4h0---0--2-----|
--5-----------2-------------|----------------------4------4-2-|
----------------------------|--0------------------------------|


                                                   
--------------------------|-----------------------|
------------2-------------|--------3----2----3----|
------------0-------------|-----------------------|
--------------------------|-----------------------|
--4------------4-5-7--5-4-|--4/-2-----------------|
-------2------------------|-----------------------|


                                                                 
------------------------------|---------------------------------|
--0---0---------0-0-2-3-3-3-2-|------------------2-2h0-0--------|
----2---------0---------------|--2h0-2-------------------2--0h2-|
---------0--------------------|--------------4------------------|
------------------------------|---------4-----------------------|
--3---------------------------|--2------------------------------|


                                                                
---------------------------------|-----------------------------|
-------------------------0-------|---------------3-------------|
--4--2h0---0-------------0-------|---------------4-------------|
---------4----4h2h0-2----4-2-0h2-|--4-5-7-5/4----4-----------0-|
---------------------------------|---------------5--2-2-4--4---|
--0------------------------------|-----------------------------|


                                                      
--------------------------------|--------------------|
--------------------------------|--------------------|
------------------2-------------|--------------------|
--2--2h0-2-2h0-2----------------|--------------------|
---------------------5-5-5--5h4-|--4/-2--------------|
------------------2-------------|--------------------|


                                                               
--2h0-2---------2-2-3/5--7-5/3-|--2h0-2---------2-3-5-5/7--9/-|
-------------------------------|------------------------------|
-------------------------------|------------------------------|
---------0---------------------|--0------0--------------------|
--2-----------2-------4--------|--------------2---------------|
-------------------------------|------------------------------|


                                                                 
--5-3-3-2---0---------2--------------|--------------------------|
------------3------2----3-2-3--5-2h0-|--2------------2-3-5-3--2-|
----------0-0----0-0-----------------|------------0-------------|
----------2-2----2-2-----------------|------------2-------------|
-------------------------------------|--------------------------|
--0----------------------------------|-------2------------------|


                                                          
-----------------------|--7h5-7---------7-7-9-10-10-10-9-|
--2h-0-----------------|--------------0------------------|
-----------------------|--0-----------0------------------|
--2-----0---------0----|---------0-----------------------|
--2-----2----4---------|---------------------------------|
-----------------------|---------------------------------|


                                                                     
--5-3-5----------5-9-9-7-7-5--3-5-|--7--5-3-2-3--2h0---0----2h0---0-|
----------------------------------|--5---------------3------2---3---|
----------------------------------|--0----------------------0-------|
----------------------------------|---------------------------------|
---------4/---9-------------------|---------------------------------|
--2-------------------------------|--0------------------------------|


                                                             
--2-3-5-3-2--------------------|--0--0---0------------------|
--0--------------0-0-0-2---2-3-|--0----3---------3-3-3-3--2-|
-------------------------------|--------------2-------------|
--0------------0-------2-------|--4-----------4-------------|
-------------------------------|----------------------------|
-------------------------------|----------------------------|


                                                      
---------------------|----------------------0--2h0---|
--2h-0----0----------|--2h0-2-----------2-3-0------3-|
---------------------|----------2----2------1--------|
--0------------------|--4-------4----4---------------|
--2------------------|-------------------------------|
---------------------|----------------------4--------|


                                                                      
----------------------0-2--4--|--4h0---------------------------------|
--2h0-2-----------2-3---------|------3-3-2-2h0---0----2--------0-----|
----------2----2--------------|----------------2--------2-1-2--------|
----------2----4--------------|---------------------0------------6-4-|
--0---------------------------|--2-----------------------------------|
------------------------------|--------------------------------------|


                                                                 
---------------1-------------|--------2-----------------------0-|
---------------0-------------|--------2-------------0-0-2-3-3---|
------------------1-2-4--2-1-|--1-----2---------1-2-------------|
--6h4-6----------------------|-----4----------4-----2-----------|
----------4------------------|----------------------------------|
-----------------------------|-------------0--------------------|


                                                                 
--2---2-----------2-4-5-5-5-4-|------------------4--4-2h0-0---0-|
----0-----3-------------------|--5-3-5----------------------3---|
----------2-------------------|---------------------------------|
--0------------0--------------|---------------------------------|
------------------------------|--4------------4-----------------|
------------------------------|----------4----------------------|


                                                   
--2-4-2h0-2h0-------0-----------------------------|
--------------3-2-3---3-2-3-2-0---0---------0-2-3-|
--------------------------------2----2/4--2-------|
--0---------------------------------------0-------|
--------------------------------------------------|
--------------------------------------------------|


                                                          
----------------2--4-5-7-----5-4-|--4--2-----------------|
--2h0---0-2----------------------|--2-----2--------------|
------2--------------------------|--2-----2----2----2----|
-------------0-------------------|-------------4----4----|
--0-----------------------4------|-------------4----4----|
---------------------------------|--2-----2----2----2----|


                                                                    
--------5/-4-2h0--------------0-2-4---2h0-|--0-----------0-2--0----|
-----------------4-4-2/1-1-1------0-------|----4-2-2---4---1----4--|
-------------1-----------2----------------|----------------1-------|
-------------------4----------------------|--4-----2-------1-------|
--0---------------------------------------|------------------------|
----4-2------------------2--------0-------|------------------------|


                                                               
--------------------0-2--0/2--|-----2-3/5-7--7----------------|
--4--2----------2-3---2-------|--0--------------0-------2-3-5-|
--1---------2---------2-------|--0--------------0----3--------|
--2---------0---------2-------|--0--------------0----4--------|
----------------------0-------|-------------------------------|
------------------------------|--3--------------3-------------|


                                                           
--2-3-2---3h2h3h2h3-2h3h2h3h2h3h2h3h2h3h2h3h2h3h2h3h2--0--|
--2-------------------------------------------------------|
--3-------------------------------------------------------|
----------------------------------------------------------|
----------------------------------------------------------|
--2-------------------------------------------------------|


                                                         
--2-------------2--7---11---14-----|--7----------------||
--3----------4---------------------|-------------------||
--4--------4-----------------------|-------------------||
--------4--------------------------|-------------------||
-----2-----------------------------|-------------------||
-----------------------------------|-------------------||


Que te parecio? Calificalo con estrellas!!

Rating: 5.4/10 (105 votos)

Este fichero es trabajo propio de su transcriptor y representa su interpretación personal de la canción. El material contenido en esta página es para exclusivo uso privado, por lo que se prohibe su reproducción o retransmisión, así como su uso para fines comerciales.


Deja tus comentarios:
Letras de canciones | Musica Independiente