Acordes y tablaturas para guitarra

Acordes y Tablaturas
Usuario: Password:

Buscar:
Acordes y Tablaturas >> Letra B >> Acordes de Blink-182 >> Always
Tablatura de Always, Blink-182

Always

Blink-182






*=Palm Mute
/=Upslide
=Downslide
~=Let Ring

{Song should be played clean}

Intro (00:32)
E---------------------------------------------------------------------------|
B---------------------------------------------------------------------------|
G---------------------------------------------------------------------------|
D-44444444-44444444------------------44444444-44444444----------------------|
A-22222222-11111111-6666666666666666-22222222-11111111-66666666-44444444----|
E-------------------4444444444444444-------------------44444444-22222222----|
  ******** ******** **************** ******** ******** ******** ********

Verse (00:45) 2x
E---------------------------------------------------------------------------|
B----4-4---4-4---4-4--------------------------------------------------------|
G---4-4---4-4---4-4---4---4-------------------------------------------------|
D---------------------------------------------------------------------------|
A-22----44------------------------------------------------------------------|
E-------------44----00--00--------------------------------------------------|

Chorus (00:56) 2x
E---------------------------------------------------------------------------|
B---------------------------------------------------------------------------|
G-44444444-88888888---------------------------------------------------------|
D-44444444-88888888-66666666-22222222---------------------------------------|
A-22222222-66666666-66666666-22222222---------------------------------------|
E-------------------44444444-00000000---------------------------------------|

Verse (01:09) 2x
E---------------------------------------------------------------------------|
B----4-4---4-4---4-4--------------------------------------------------------|
G---4-4---4-4---4-4---4---4-------------------------------------------------|
D---------------------------------------------------------------------------|
A-22----44------------------------------------------------------------------|
E-------------44----00--00--------------------------------------------------|

Interlude (1:21) 4x
E---------------------------------------------------------------------------|
B---------------------------------------------------------------------------|
G---------------------------------------------------------------------------|
D---------------------------------------------------------------------------|
A-6---6-4---4-6-------------------------------------------------------------|
E---7-----6-----4-2-4-------------------------------------------------------|


Verse (01:45) 4x
E---------------------------------------------------------------------------|
B----4-4---4-4---4-4--------------------------------------------------------|
G---4-4---4-4---4-4---4---4-------------------------------------------------|
D---------------------------------------------------------------------------|
A-22----44------------------------------------------------------------------|
E-------------44----00--00--------------------------------------------------|

Chorus (2:10) 4x
E---------------------------------------------------------------------------|
B---------------------------------------------------------------------------|
G-44444444-88888888---------------------------------------------------------|
D-44444444-88888888-66666666-22222222---------------------------------------|
A-22222222-66666666-66666666-22222222---------------------------------------|
E-------------------44444444-00000000---------------------------------------|

Bridge (2:34) 2x
E---------------------------------------------------------------------------|
B---------------------------------------------------------------------------|
G-44444444-33333333-44444444/8888/4-----------------------------------------|
D-xxxxxxxx-xxxxxxxx-xxxxxxxx/xxxx/x-----------------------------------------|
A-22222222-11111111-22222222/6666/2-----------------------------------------|
E---------------------------------------------------------------------------|

Outro (2:45)
E---------------------------------------------------------------------------|
B---------------------------------------------------------------------------|
G-4/6/8~6~-4~-4/6/8~6~-4~-------------------------------------------------|
D-x/x/x~x~-x~-x/x/x~x~-x~-------------------------------------------------|
A-2/4/6~4~-2~-2/4/6~4~-2~-------------------------------------------------|
E---------------------------------------------------------------------------|

Chorus (3:11) 4x
E---------------------------------------------------------------------------|
B---------------------------------------------------------------------------|
G-44444444-88888888---------------------------------------------------------|
D-44444444-88888888-66666666-22222222---------------------------------------|
A-22222222-66666666-66666666-22222222---------------------------------------|
E-------------------44444444-00000000---------------------------------------|

Bridge (3:35) 4x
E---------------------------------------------------------------------------|
B-4-4-4-4-5---4-4-4-4-5--4-4-4-4-5---4-4-5---4-4-5--------------------------|
G--4-4-4-------4-4-4------4-4-4-------4-------4-----------------------------|
D---------------------------------------------------------------------------|
A---------------------------------------------------------------------------|
E---------------------------------------------------------------------------|

End On (4:01)
E---------------------------|
G---------------------------|
B-4~------------------------|
D-4~------------------------|
A-2~------------------------|
E---------------------------|



Que te parecio? Calificalo con estrellas!!

Rating: 7.9/10 (104 votos)

Este fichero es trabajo propio de su transcriptor y representa su interpretación personal de la canción. El material contenido en esta página es para exclusivo uso privado, por lo que se prohibe su reproducción o retransmisión, así como su uso para fines comerciales.


Deja tus comentarios:

Letras de Blink-182
Letras de canciones | Musica Independiente