Enviado por: JUAMPY
Agrandar Letra
Reducir Letra
Imprimir






Jaf, Maravillosa Esta Noche

bueno aca les dejo una parte de maravillosa enta noche...espero que les guste......chau

1--------------------------------------------
2--------------------------------------------
3--12--14p-----12--14------12--14p--12-------
4--------------------------------------14----
5--------------------------------------------
6--------------------------------------------

1--------------------------------------------
2--------------------------------------------
3--12--14p---12--14--------------12--14--12--
4--------------------12--12--14--------------
5--------------------------------------------
6--------------------------------------------
Aviso: Este fichero es trabajo propio de su transcriptor y representa su interpretación personal de la canción. El material contenido en esta página es para exclusivo uso privado, por lo que se prohibe su reproducción o retransmisión, así como su uso para fines comerciales.

Califica esta canción


Comentarios en Facebook