Acordes y tablaturas para guitarra

Acordes y Tablaturas
Usuario: Password:

Buscar:
Acordes y Tablaturas >> Letra L >> Acordes de La renga >> Oscuro Diamante
Tablatura de Oscuro Diamante, La renga

Oscuro Diamante

La renga






h:hamer on
p:pull off
b:estirar
xbyrx:estirar y volver a la nota estirada (x)
~~:vibrar
pm..:palm mute, o machaque

|-----------------------------     -------------|
|-----------------------------     -------------|
|-----------------------------     -------------|
|----------------5--5---7--7--x4 + -------------|
|-9--10---2--2---3--3---5--5--     --------2-2--|
|-7--8----0--0----------------     -7~-8~--0-0--|


------------------7---------------------------------------12~~-
----------7-8-7------7h8p7--------------------12-13-12---------
--------9-------9--------------------------14----------14------
------9----------------------------------14--------------------
-7-10------------------------------12-15-----------------------
----------------------------8--8-------------------------------

-14------------------------------------------------
----15~~--15b17-15~--15-13-12--13--13-12---12------
-------------------------------------------14b-----
---------------------------------------------------
---------------------------------------------------
---------------------------------------------------

E5                     C5
busquemos vida algun lugar
                                  G5
al reparo del mundo sin brillo que hoy
                    D5               B5    C5
en el cosmos de la mente, se hizo estrela opaca

E5                     C5
hacia donde mas podemos ir?
                                 G5
talvez el oscuro diamante este en mi
                D5               B5       C5   E5-E5
talvez seamos fugitivos, de donde nadie escapa.

------------------7---------------------------------------12~~-
----------7-8-7------7h8p7--------------------12-13-12---------
--------9-------9--------------------------14----------14------
------9----------------------------------14--------------------
-7-10------------------------------12-15-----------------------
----------------------------8--8-------------------------------

-14------------------------------------------------
----15~~--15b17-15~--15-13-12--13--13-12---12------
-------------------------------------------14b-----
---------------------------------------------------
---------------------------------------------------
---------------------------------------------------

E5                            C5
una huella invisible quisiera dejar
                                G5
y que nadie sepa que estivimos aca,
                           D5         B5    C5
quien dio a luz al primer sueño, para ir tanlejos?

E5                              C5
si puedieran mis ojos ver en el sol
                             G5
para saber esas sombras decifrar
                        D5         B5     C5    E5-E5
pero aunque ya se hizo tarde, seguimos buscando


------------------7---------------------------------------12~~-
----------7-8-7------7h8p7--------------------12-13-12---------
--------9-------9--------------------------14----------14------
------9----------------------------------14--------------------
-7-10------------------------------12-15-----------------------
----------------------------8--8-------------------------------

-14----------
----15~~~----
-------------despues de esto engancha el saxo, y la guitara hace:
-------------
-------------
-------------

|-----------------------------     -------------|
|-----------------------------     -------------|
|-----------------------------     -------------|
|----------------5--5---7--7--x3 + -------------|
|-9--10---2--2---3--3---5--5--     --------2-2--|
|-7--8----0--0----------------     -7~-8~--0-0--|

E5-C5-G5-D5-B5-C5 X2



solo de saxo

^:nota que dura un poco
^^:nota que dura un poco mas


min 1:53
-----------------------15--15-12--15b---
--15b-15b-15b-15b-15b-------------------
----------------------------------------
----------------------------------------
----------------------------------------
----------------------------------------

min 1:59
-17b-17b-17b-17b-17b-17br-12---12-14p12---------------
----------------------------------------15--12--(12)--
------------------------------------------------(14b)-
------------------------------------------------------
------------------------------------------------------
------------------------------------------------------

min 2:07
--------15-------15-------15--------15-------
-15h17-----17-17----17-17----17-17-----17----
---------------------------------------------
---------------------------------------------
---------------------------------------------
---------------------------------------------
---------------------------------------------

min 2:10
-------------------------------------------
--------------------------------12-15-15---
-------12-14-14^-14^-14^-14---14-----------
-12-14-------------------------------------
-------------------------------------------
-------------------------------------------

min 2:14
---------------------15b-15b-15-12--------------
-15-17-17-17--15-15----------------15--12-12-12-
------------------------------------------------
------------------------------------------------
------------------------------------------------
------------------------------------------------

min 2:20
-----------------------------------------------
------------------------12-15p12-15-17-15-15---
----14p12-14-14br-14br-------------------------
-14--------------------------------------------
-----------------------------------------------
-----------------------------------------------

min 2:24
----------15-----15p12-12----------------
----15-17----17--------------------17-15-
-16-------------------------16-16--------
-----------------------------------------
-----------------------------------------
-----------------------------------------

min 2:29
-15-15--15-----------15^^--15b^-15b-15b-15b-15b-
-----------17-15-17-----------------------------
------------------------------------------------
------------------------------------------------
------------------------------------------------
------------------------------------------------

min 2:36
-17b^^-17br-15^^-----------
---------------------------
---------------------------
---------------------------
---------------------------
---------------------------


E5                                C5
perdido sin decirlo presiento el final
                                    G5
enterrando en la nochhe, al pesado dolor
                  D5              B5    C5     E5
nos hacemos mas livianos, nos quedamos sin sentido,

E5                    C5
el mundo por fin se apago
                              G5
dejando a oscuras la vieja ilusion
                       D5        B5      C5    E5-E5
que aunque sea ya muy tarde, seguimos buscando


             oohhoee buscando
|-----------------------------------------
|-----------------------------------------
|-----------------------------------------
|-5-5---7--7-------------------5-5---7--7-
|-3-3---5--5---9--10---2--2----3-3---5--5-
|--------------7--8----0--0---------------

heee yea yea
-----------------------------------------
-----------------------------------------
-----------------------------------------
-----------------5-5--7--7---------------
-9--10---2--2----3-3--5--5---9--10--2--2-
-7--8----0--0----------------7--8---0--0-

---------------------------
---------------------------
---------------------------
-5-5--7--7-----------------
-3-3--5--5----------2-2----
-------------7~-8~--0-0----

pm.......
------------------7~~------------7~~-
----------7-8-7--------7--8--7---7~~-
--------9-------9--------------------
------9------------------------------
-7-10--------------------------------
-------------------------------------

------------------------------------------------
-7h8p7h8p7h8p7h8p7h8p7h8p7h8p7h8p7h8p7h8p7h8p7--
------------------------------------------------
------------------------------------------------
------------------------------------------------
------------------------------------------------

Que te parecio? Calificalo con estrellas!!

Rating: 7.7/10 (57 votos)

Este fichero es trabajo propio de su transcriptor y representa su interpretación personal de la canción. El material contenido en esta página es para exclusivo uso privado, por lo que se prohibe su reproducción o retransmisión, así como su uso para fines comerciales.


Comentario de Ossi963
http://lacuerda.net/tabs/r/renga/oscuro_diamante-8.shtml lo pongo aca x si no saben los acordes
Deja tus comentarios:

Letras de La renga
Letras de canciones | Musica Independiente