Acordes y tablaturas para guitarra

Acordes y Tablaturas
Usuario: Password:

Buscar:
Acordes y Tablaturas >> Letra I >> Acordes de Insite >> SIEMPRE ME DEJAS
Acordes de SIEMPRE ME DEJAS, Insite

SIEMPRE ME DEJAS

Insite

Transcriptor:
juan jose damian espinoza
Letras de Canciones
Acordes para Guitarra





am7.c.
Guitarra 1
Intro X4

E|-8----8---8---8--8-----8--------------------
A|--------------------------------------------
D|-----------------------------0------0-----0-
G|---0---------------0-------0------0-----0---
B|----0----------------0---7------6-----5-----
e|-8-----8--10--7-----------------------------

Guitarra 2 [entra en la 3ª vuelta del intro]

E|---------------
A|---------------
D|---------------
G|---------8-7-8-
B|-10-9-10-------
e|---------------

Verso

      C   Am7
E|----0----0----
A|----3----0----
D|----2----2----
G|----0----0----
B|----1----1----
e|----X----0----


C
solo déjame hablar
Am7
no quieres verme
C
tu me das aire para respirar
Am7
un día mas

parece mentira
que todo el mundo
de vueltas
a tu alrededor
pero tu
tu siempre me dejas

Coro:

Yo se que sientes algo mas

Guitarra 1 [igual que el verso]

Guitarra 2 X4

E|---------------------------------------------
A|---------------------------------------------
D|------------------------------0------0-----0-
G|---------------------------0------0-----0----
B|--00000000000--0-00000---7------6-----5------
e|--88888888888-10-77777-----------------------

C                   Am7

perdóname, yo me resisto

a perderte otra vez
C                   Am7
perdóname, es que no puedo

verme lejos de ti

Coro

Puente:
C Am7 X4

perdóname, yo me resisto
a perderte otra vez
perdóname, es que no puedo
verme lejos de ti

Coro
 

Que te parecio? Calificalo con estrellas!!

Rating: 6.9/10 (108 votos)

Este fichero es trabajo propio de su transcriptor y representa su interpretación personal de la canción. El material contenido en esta página es para exclusivo uso privado, por lo que se prohibe su reproducción o retransmisión, así como su uso para fines comerciales.


Comentario de juan jose damian espinoza
3S MUY 8U3N4 ROL4 ESCUCHENLA
Deja tus comentarios:
Letras de canciones | Musica Independiente