Enviado por:
Luchoxx22

The Beatles, The End

Imprimir
The Beatles
The End


Intro
|-----|------------------|----------------|---------------------|-------------
|-10--|-13b15-------12---|-15b17----------|---------------------|-------------
|-----|------------------|----------------|---------------------|-------------
|-----|------------------|----------------|---------------------|-------------
|-----|------------------|--------------0-|-(0)--4-5-6-7--8--9--|---9--7--4---
|-----|------------------|----------------|------6-7-8-9-10-11--|--10--8--5---

    A   D     B    E
-|--5---10----7----12----
-|--5---10----7----12----
-|--2---7-----4----9-----
-|--2---7-----4----9-----
-|-----------------------
-|-----------------------
    Oh Yeah  All Right

     A                       Eb dim      A
-|-----------------------------------------------
-|-----------------------------------------------
-|-----------------------------------------------
-|-----------------------------------------------
-|-----------4--5--6--7---8---9--------9--7--4---
-|---5-------5--7--8--9--10--11-------10--8--5---
    Are you gonna be in my dreamsTonight


    A7   A      D7   D7
-|--5----5------5----5---------
-|--5----5------7----7---------
-|--6----6------5----5---------
-|--5----7------7----7---------   6x
-|--7----7------5----5---------
-|--5----5---------------------
   Love You    Love You


Solo
                A7    A            D7
-|--------------5-----5--3------------------------------------
-|--5--5--5--5-----5--------3/1-----3--1----------------------
-|-------------------------------2--------2--0----------------
-|------------------------------------------------------------
-|------------------------------------------------------------
-|------------------------------------------------------------


                   A7  A             D7
-|-----------------------------------------------------------------------
-|----------------b(13)11--11h13p11--------------------------------------
-|--12h14--12h14---------------------12--12--12--------------------------
-|-----------------------------------------------14--14--12--12----------
-|---------------------------------------------------------------15--12--
-|-----------------------------------------------------------------------


    A7                  A                       D7
-|------------------------------------------------------
-|--12-----14------12-----14------12-----14------12-----  
-|--12h14--14--14--12h14--14--14--12h14--14--14--12-----  
-|--12h14--14--14--12h14--14--14--12h14--14--14--12-----   
-|------------------------------------------------------  
-|------------------------------------------------------   


             A7       A              D7
-|--8--8--8--8---------------------------------------------
-|--------------5-----------5--4--5--------------11b(13)---
-|-----------------5-----5-----------14--12--14------------
-|--------------------7------------------------------------
-|---------------------------------------------------------  
-|---------------------------------------------------------  


          A           A7                   D7
-|------------------------------------------------------------5--  
-|--------5--5--------5--5-----5--5-----5--7b(9)r7--5h7p5--------
-|--------5--5--------5--5-----5--5-----5--7b(9)r7--5h7p5--------
-|--7--7--------7--7--------7--------7---------------------7-----
-|---------------------------------------------------------------
-|---------------------------------------------------------------
-|---------------------------------------------------------------
-|---------------------------------------------------------------


             A     A7   D7
-|---------------------------------------------------------------
-|---------------------------------------------------------------
-|---------------------------------------------------------------
-|---------------------------------------------------------------
-|-----------3--5--3--5--3--5--3--b(7)5--5--3--5-----------------
-|--0--3--5------------------------------------------------------


             A              A7      D7
-|-------------------------------------------------------------------
-|-------------------------------------------------------------------
-|--------------5--5--5--5--------------5--5--5--5-------------------
-|--5--5--5--5--------------5--5--5--5--------------75--------------
-|-------------------------------------------------------75--3--0---
-|-------------------------------------------------------------------


     A       A7      D7
-|-----------------15b(17)--15-----------------------------------
-|--5/8--8/10--13---------------13--15--13-----------------------
-|---------------------------------------------------------------
-|---------------------------------------------------------------
-|---------------------------------------------------------------
-|---------------------------------------------------------------


             A    A7           D7                A
-|---------------------------------------------------------------
-|-----------7--7--7--7--7--7--7--7--7--7--7--7--5---------------
-|-----------7--7--7--7--7--7--7--7--7--7--7--7--6---------------  
-|-----5--7--7--7--7--7--7--7--7--7--7--7--7--7--7---------------  
-|--7------------------------------------------------------------
-|---------------------------------------------------------------




Piano Break

And in the end 
|-----------------||-----------------|-------9s8s9--9s8s9---|
|-----------------||-----------------|----------------------|
|-----------------||-----------------|-------9s8s9--9s8s9---|
|-----------------||-----------------|----------------------|
|-----------------||-----------------|----------------------|
|-----------------||-----------------|----------------------|

The love you take
|-----------------|-------7s6s7-------|-----------------|
|-----------------|-------5s4s5-------|-----------------|
|-----------------|-------------------|-----------------|
|-----------------|-------------------|-----------------|
|-----------------|-------------------|-----------------|
|-----------------|-------------------|-----------------|

Is equal to the love you make.
|---------|--------------||--------------------8-10b12-8--|
|---------|--------------||------------------8------------|
|---------|--------------||-9--------------9--------------|
|---------|--------------||-------------10----------------|
|---------|--------------||--------7-10-------------------|
|---------|--------------||------8------------------------|

|---------|--------------||-------------------------------|
|---------|-6-5-3-1------||-------------------------------|
|---------|---------4----||-------------------------------|
|---------|-7-5-3-2------||-------------------------------|
|---------|---------5----||-------------------------------|
|---------|--------------||-------------------------------|

|-15b17------------|---------11-13b15-13-11-------------------|----------*|
|------------------|------11----------------13b15r(13)-----13-|-15b17----*|
|------------------|---12-------------------------------14----|----------*|
|------------------|------------------------------------------|----------*|
|------------------|------------------------------------------|----------*|
|------------------|------------------------------------------|----------*|

Espero que la disfruten...Una de muchas obras de Artes de  The Beatles....Chau

Aviso: Este fichero es trabajo propio de su transcriptor y representa su interpretación personal de la canción. El material contenido en esta página es para exclusivo uso privado, por lo que se prohibe su reproducción o retransmisión, así como su uso para fines comerciales.
comentario del colaborador: Fuente:http://www.acordesytablaturas.com/tabs-B/1997/Beatles/The-End.html

Califica esta canción


Comentarios en Facebook