Enviado por: veddier
Agrandar Letra
Reducir Letra
Imprimir











Pearl Jam, Better Man

Intro:


e|---------------------------------------------------------
B|---3---0--------3---0-----------4---0-------4---4---4----
G|---2-----2------2-----2---------3-----3-------3---3---3--
D|---------------------------------------------------------
A|---------------------------------------------------------
E|-2----------0h2-------------0h4----------4---------------

Play that part about 4 times then at the ‘he opens the door...

e|----------------------------------------------------
B|--6----6-----------8----8----6----6------8---8---8--
G|--5--5-------------7--7------5—5-------7---7---7----
D|----------------------------------------------------
A|----------------------------------------------------
E|-5-------------7-----------5---------7--------------


D            A            G  
She lies and says shes in love with him
D           A          G   
Cant find a better man
D             A           G
She dreams in colour she dreams in red
D            A            G
Can’t find a better man


y todo igual hasta el final.



Saludos!

Aviso: Este fichero es trabajo propio de su transcriptor y representa su interpretación personal de la canción. El material contenido en esta página es para exclusivo uso privado, por lo que se prohibe su reproducción o retransmisión, así como su uso para fines comerciales.

Califica esta canción


Comentarios en Facebook