Enviado por: Massi666
Agrandar Letra
Reducir Letra
Imprimir











Hermetica, Olvidalo Y Volvera Por Mas

1|--3---3-2-----0-2-3---3-2---2-3---3-2-----0-2---------0---|
2|----------------------------------------------3-3--5------|
3|---0-------0-------0------0-----0------0-------------0----|  Riff 1
4|--2-----0---------2-----0-----2-----0---------------------|
5|----------------------------------------------2-2--4------|
6|----------------------------------------------------------|


1|---------------------------------------------------------|
2|---------------------------------------------------------|
3|---5-----------5-7-----7-5----5------------5--7--7--5-2--|   Riff 2
4|-2-5-5-4-4-5-2-5-7-7-7-7-5--2-5-5-4-4-5--2-5--7--7--5—2--|
5|-2-3-5-4-4-5-2-3-5-7-7-5-3--2-3-5-4-4-5--2-3--5--5--3—0--|
6|-0---3-2-2-3-0-----5-5------0---3-2-2-3--0---------------|

Riff 3
1|--------------------|
2|--------------------|
3|-9-7-9----9-7-------|
4|-9-7-9-10-9-7-9-10--|
5|-7-5-7-10-7-5-9-10--|
6|--------8-----7--8--|

Solo - Acompañamiento como Verso
----
2:04
E------------------------12-14-15-14--12h14p12----12----------------|
B--15b17--17r15----15~-------------------------15----15-13-12-------|
G---------------16--------------------------------------------14-12-|
D-------------------------------------------------------------------|
A-------------------------------------------------------------------|
E-------------------------------------------------------------------|

2:09
E-12-15p12-15p12-----1212-15p12-----1212-15p12---1212-15p12----|
B------------------15--------------15----------15------------15-|
G---------------------------------------------------------------|
D---------------------------------------------------------------|
A---------------------------------------------------------------|
E---------------------------------------------------------------|



E--15p12-15p12-15p12---15p12-----------|
B----------------------------15-12-15--|
G--------------------------------------|
D--------------------------------------|
A--------------------------------------|
E--------------------------------------|


2:12
E-----------------------------------------------------|
B-----------------------------------------------------|
G-14b16-14-12-14~--12-11-12-11h12p11------------------|
D------------------------------------12-12h14~--------|
A-----------------------------------------------------|
E-----------------------------------------------------|

E--------------------------___3___--____3___---------___3___------------------
B-----------7-8-8p7---7-8--10-8-10--12-10-12--13-12--10-8-10---8-7-8--7-8-10-- -7-8--|
G---------9---------9---------------------------------------------------------
D-----9~----------------------------------------------------------------------
A-5/7-------------------------------------------------------------------------
E-----------------------------------------------------------------------------


2:25
E--------------------------------------7-8----7---------------------|
B-------7h8p7---7-8-10-7h8p7-8p7-----------10---8-10-8p7------------|
G--7h9--------9------------------9-----------------------7-9~-------|
D-------------------------------------------------------------------|
A-------------------------------------------------------------------|
E-------------------------------------------------------------------|

E-----------------------------------------------------------------------------
B-----------------------------------------------------------------------------
G-7h9p7h9p7h9---9h11p9h11p9h11---11h12p11h12p11h12--12h14p12h14p12h14---------
D-----------------------------------------------------------------------------
A-----------------------------------------------------------------------------
E-----------------------------------------------------------------------------

2:33
E-----------------------------------------------------------------------------
B-12-13-15-15-13-12-13-12---13-12-15-13-12------------------------------------
G------------------------------------------14-12-14b16~r14p12--14b16r14b16r14b16~--|
D-----------------------------------------------------------------------------
A-----------------------------------------------------------------------------
E-----------------------------------------------------------------------------


2:36
E-15p12---12--17p12-15p12-----12-17p12-14p12-15p12-----12-15p12---12-15p12---12-15p12---12-15p12---------
B-------15------------------15-----------------------15---------12---------12---------12---------15p12---
G-------------------------------------------------------------------------------------------------------
D-----------------------------------------------------------------------------
A-----------------------------------------------------------------------------
E-----------------------------------------------------------------------------

E-------------------------------------------------------|
B----------------12-15-12-------------------------------|
G---14b16~--14b16---------14-12--14b16~--14-12-14b16~---|
D-------------------------------------------------------|
A-------------------------------------------------------|
E-------------------------------------------------------|


E-----------------------------------------------------------------------------
B-----------------------------------------------------------------------------
G-12-12h14p12h14p12h14p12--11h12p11h12p11h12p11h12--9h11p9h11p9h11p9h11p9-9-7-
D-----------------------------------------------------------------------------
A-----------------------------------------------------------------------------
E-----------------------------------------------------------------------------

2:44
E-------------------------------------
B--------7-8-10-8--7h8p7---7-8-7------
G--5/7-9-----------------9-------9~---
D-------------------------------------
A-------------------------------------
E-------------------------------------




Riff 1
Politiqueando un doctor de la ley
gano lugar con solo prometer
carnes asadas convido al pueblo
quien dio su voto creyendo

Que poseía sensibilidad social
que cumpliria sin aflojar
con sus discursos pre-electorales
con los que tejió su fraude

Riff 2
En un avion se llevo el dineral
a donde nadie sabe
seguro de que pronto lo olvidarán
y podrá postularse otra vez

Riff 1
Fue groso el toco que pegó al rajar
amasijando la capital
el desvalije esta latente
lo sabe hasta el presidente

Riff 2
En un avion se llevo el dineral
a donde nadie sabe, porsupuesto
seguro de que pronto lo olvidarán
y podrá postularse otra vez, nuevamente

solo 

Riff 2
Olvidalo y volvera por mas
mostrandose confiable  en los carteles
con prometer a mushos fascinara
y con su nombre pintaran paredes

Riff 3
La muerte es ocultar la verdad
el vacío es dejarse mentir
en un avion se llevó el dineral
y volvera por mas cuando lo olvides



Aviso: Este fichero es trabajo propio de su transcriptor y representa su interpretación personal de la canción. El material contenido en esta página es para exclusivo uso privado, por lo que se prohibe su reproducción o retransmisión, así como su uso para fines comerciales.
comentario del colaborador: Este temaso es para todos estos putos q nos han cagado y q kieren seguir haciendolo… Es para q no olvidemos lo q tanto nos costo lograr AGUANTE EL METAL!!!!

Califica esta canción


Comentarios en Facebook