Acordes y tablaturas para guitarra

Acordes y Tablaturas
Usuario: Password:

Buscar:
Acordes y Tablaturas >> Letra L >> Acordes de La renga >> Triste Canción de Amor
Tablatura de Triste Canción de Amor , La renga

Triste Canción de Amor

La renga






Intro (Saxo)

e|------------------------------|-------------------------------|
b|---/5-------------------------|---/5----------------5---------|
g|------7-5------------5--------|------7-5---5--7-7-5---7-5-7---|
d|----------7-5--7-7-5---7-5-7--|----------7--------------------|
a|------------------------------|-------------------------------|
E|------------------------------|-------------------------------|

e|------------------------------|-----------------------5-------|
b|---/5-------------------------|---/5--------8-5-8-5-8---------|
g|------7-5------------5--------|------7-5----------------------|
d|----------7-5--7-7-5---7-5-7--|----------7--------------------|
a|------------------------------|-------------------------------|
E|------------------------------|-------------------------------|


e|-------5-5--------------------|--/5-5-5-5-5-------------------|
b|---5-8-----8-5---------5-8----|-------------------------------|
g|---------------7-5-7-5--------|-------------------------------|
d|------------------------------|-------------------------------|
a|------------------------------|-------------------------------|
E|------------------------------|-------------------------------|

e|---5--------------------------|----------------------5--------|
b|-----8-5---/5-5-5-5---------5-|--8-8-5--8-5-8-5-8-------------|
g|---------7-----------5-7-7----|--------7----------------------|
d|-------------------7----------|-------------------------------|
a|------------------------------|-------------------------------|
E|------------------------------|-------------------------------|

e|---7-7-7-5--------------------|-------------------------------|
b|-----------8-5----------------|--5h6p5------------------------|
g|------------------------------|--------7-5-----------5------5-|
d|------------------------------|------------7-7-7-5-7---7-5-7--|
a|------------------------------|-------------------------------|
E|------------------------------|-------------------------------|


e|---------------5--------------|-------------------------------|
b|---5--8-8-5--8---5---5--------|-------------------------------|
g|-------------------7----------|-------------------------------|
d|------------------------7-----|---2---------------------------|
a|------------------------------|-------------------------------|
E|------------------------------|-------------------------------|


Arpegio

e|---0---------0----------0-----|---3----------3---------3------|
b|-----1---------1--------1-----|-----3----------3-------3------|
g|------------------------2-----|------------------------0------|
d|--------2--------2------2-----|-------0----------0-----0------|
a|------------------------0-----|------------------------2------|
E|------------------------------|------------------------3------|


Lam                      Sol
Ella existió solo en un sueño
        Lam                                Sol
y él es el poema que el poeta nunca escribió.
            Lam
Y en la eternidad los dos
             Sol
unieron sus almas para darle vida
    Fa        Mi              Lam
a esta triste canción de amor.

Él es como el mar
                Sol
y ella como la luna
          Lam                           Sol
y en las noches de luna llena hacen el amor.
          Lam
Y en la eternidad los dos
             Sol
unieron sus almas para darle vida
     Fa        Mi             Lam
a esta triste canción de amor.

     Fa        Mi             Lam
a esta triste canción de amor.


Solo de saxo: (Lam - Sol)x2 (Fa - Mi - Lam)x2


Lam                                 Sol
Él es como un dios y ella como una virgen
         Lam                   Sol
y los dioses les enseñaron a pecar.
           Lam
Y en la eternidad los dos
             Sol
unieron sus almas para darle vida
    Fa       Mi             Lam
a esta triste canción de amor.


Solo de Guitarra: (Lam - Sol)x2 (Fa - Mi - Lam)x2


Lam                      Sol
Ella existió solo en un sueño
        Lam                                Sol
y él es el poema que el poeta nunca escribió.
            Lam
Y en la eternidad los dos
             Sol
unieron sus almas para darle vida
    Fa        Mi              Lam
a esta triste canción de amor.

    Fa        Mi              Lam
a esta triste canción de amor.


Final: (Lam - Sol)x3 (Fa - MI - Lam)x1 (Fa - MI)x3 Lam



Que te parecio? Calificalo con estrellas!!

Rating: 6.0/10 (41 votos)

Este fichero es trabajo propio de su transcriptor y representa su interpretación personal de la canción. El material contenido en esta página es para exclusivo uso privado, por lo que se prohibe su reproducción o retransmisión, así como su uso para fines comerciales.


Deja tus comentarios:

Letras de La renga
Letras de canciones | Musica Independiente