Enviado por: josephrockerlive
Agrandar Letra
Reducir Letra
Imprimir

Acordes:
½ tono
| +0 |
½ tono
||
Volver


Rojo, Te Alabare

 1º Guitarra:
E|----------------------------------------------/
B|-----------------------------------------------/
G|-----9---------9---------7----------------------|    

ESTO 2 VECES

D|-------9----------8---------6--------------------/
A|-------------------------------------------------/
E|-------------------------------------------------/

2º Guitarra:
B|----12------------10-9--7--5-----------|


E           B               C#m7               A 
ERES TU LA UNICA RAZON DE MI ADORACION ¡OH JESUS!
E              B             C#m7              A 
ERES TU LA ESPERANZA QUE ANHELE TENER ¡OH JESUS!
F#m                        B  F#m                     B
CONFIE EN TI  ME HAS AYUDADO TU SALVACION ME HAS REGALADO
E                   B               A            B
HOY HAY GOZO EN MI CORAZON CON MI CANTO TE ALABARE


  F#m      C#   D#m         B
//TE ALABARE   TE GLORIFICARE
F#        C#             B
TE ALABARE   MI BUEN JESUS//


ERES TU....

//E  A  E  B7//

  E     A         E       B7  E     A         E       B7
//EN TODO TIEMPO TE ALABARE   EN TODO TIEMPO TE ADORARE//


PUENTE.  //////E C D B  ////// X 2 vEcEs


 ... DESPUES VA ESTE REQUINTO

B ---5-5-8-5-8-10-7

   G       D  Em           C   G        D             C
///TE ALABARE TE GLORIFICARE   TE ALABARE MI BUEN JESUS//


AL FINAL SE TOCA EL PUENTE 
Aviso: Este fichero es trabajo propio de su transcriptor y representa su interpretación personal de la canción. El material contenido en esta página es para exclusivo uso privado, por lo que se prohibe su reproducción o retransmisión, así como su uso para fines comerciales.

Califica esta canción


Comentarios en Facebook