Enviado por:
coosiiaacoo








Soda Stereo, De Musica Ligera

 -Tengo una buena canción para cantar, a ver:

B5         G5-D5    A5           B5-G5-D5-A5
-Ella durmió, al calor de las masas,
B5           G5-D5    A5           B5-G5-D5-A5
-Y yo desperté, queriendo soñarla

-Ahora van ustedes:

B5               G5-D5    A5          B5-G5-D5-A5
-Algún tiempo atrás, pensé en escribirle
B5             G5-D5    A5               B5-G5-D5-A
-Y nunca sortié, las trampas del amor

Coro del público:

Esto va sin guitarra, solo a lo último

-De aquel amor de música ligera,
                                                G-D
-Nada nos libra, nada más queda       Nada más queda…. 

Bm-G-D-A    Bm-G-D-A    ¡A volar todos!

e-------------------------------------------------------------
B-------------------------------------------------------------
G-------------------------------------------------------------
D-------------------------------------------------------------
A-2-2-4-5---5-5-4-2-0---2------------2-2-4-5------5-5-4-2-0-2--
E---------------------2---2-0-2-0------------------------------

Ese punteo va sobre esto:

Bm-G-D-A    Bm-G-D-A   Bm-G-D-A    Bm-G-D-A 

               G-D                  G-D
-No le enviaré,      cenizas de rosas
                 G-D                  G-D-A
-Ni pienso evitar,      un rose secreto
Bm          G-D    A            Bm-G-D-A
-De aquel amor de música ligera,
Bm             G-D  A              Bm-G-D-A
-Nada nos libra, nada más queda


E-5-7-5-7-5-7-----------------1-2-14-12-10-12-13-12-10-9-7-5-4-
B------------7-5-7-5-7-5-5-5/2---------------------------------
G--------------------------------------------------------------
D--------------------------------------------------------------
A--------------------------------------------------------------
E---------------------------------------------------------------

E-14-12-14--12-14-15-14-12--12-14-15-14-12-10-9-10-12-10-9------
B---------------------------------------------------------------
G---------------------------------------------------------------
D---------------------------------------------------------------
A---------------------------------------------------------------
E---------------------------------------------------------------


Bm             G-D    A            Bm-G-D-A
-De aquel amor de música ligera,
Bm             G-D  A              Bm-G-D-A
-Nada nos libra, nada más queda
Bm             G-D  A              Bm-G-D-A
-Nada más queda, nada más queda
Bm             G-D  A              Bm-G-D-A
-Nada más queda, nada más queda

Batería, guitarra y órgano
               G-D
¡Gracias totales!  
 
Aviso: Este fichero es trabajo propio de su transcriptor y representa su interpretación personal de la canción. El material contenido en esta página es para exclusivo uso privado, por lo que se prohibe su reproducción o retransmisión, así como su uso para fines comerciales.
comentario del colaborador: Espero que les sirva mucho y que les valla bien con este tema... SUERTE !!

Califica esta canción


Comentarios en Facebook