Enviado por: zuneo
Agrandar Letra
Reducir Letra
Imprimir

Acordes:
½ tono
| +0 |
½ tono
||
Volver





The Beatles, nowhere man

  E           B
He\'s a real nowhere man
 A             E
Sitting in his nowhere land
F#m            Am                E
Making all his nowhere plans for nobody

E              B
Doesn\'t have a point of view
A                    E
Knows not where he\'s going to
F#m        Am               E
Isn\'t he a bit like you and me

G#m         A 
Nowhere man, please listen
          G#m              A 
You don\'t know what you\'re missing
        G#m      F#m      A              B
Nowhere man, the world is at your command

Solo:

E|-|--0-0--0--0-0-0--|--0-0--0-0-0-0--|----------------|-|
B|-|--5-0--5--4h5-7--|--5-0--0-0-0-0--|----------------|-|
G|-|--4-4--4--4-4-4--|--4-4--2-1h2/4--|--2-2-2--2-2-2--|-|
D|-|-----------------|----------------|------4---------|-|
A|-|-----------------|----------------|-------------3--|-|
e|-|-----------------|----------------|----------------|-|

E|-|---------------[12]--|-|
B|-|---------------------|-|
G|-|---------------------|-|
D|-|---------------------|-|
A|-|---------------------|-|
e|-|--8-8-7---7/0--------|-|

 E             B
He\'s as blind as he can be
 A             E
Just sees what he wants to see
 F#m        Am           E
Nowhere man can you see me at all?
G#m          A 
Nowhere man, don\'t worry
             G#m        A 
Take your time, don\'t hurry
         G#m           F#m          A          B
Leave it all till somebody else lends you a hand

 E              B
Doesn\'t kave a point of view
 A              E
Knows not where he\'s going to
 F#m          Am         E
Isn\'t he a bit like you and me?

G#m          A 
Nowhere Man, please listen
               G#m            A 
You don\'t know what you\'re missing
    G#m          F#m       A     B
Nowhere Man, the world is at your command

 E                B
He\'s a real Nowhere Man
 A                E
Sitting in his Nowhere Land
 F#m              Am            E
Making all his nowhere plans for nobody. 
Aviso: Este fichero es trabajo propio de su transcriptor y representa su interpretación personal de la canción. El material contenido en esta página es para exclusivo uso privado, por lo que se prohibe su reproducción o retransmisión, así como su uso para fines comerciales.

Califica esta canción


Comentarios en Facebook