Enviado por:
aqui_estoy

Soda Stereo, De Música Ligera

Imprimir
Solo de “De Música ligera”, de Soda Stereo:

Tuning: E A D G B E 

|-7~5~7~5-7-5--2~-0~2-5p3p0-3p2-5-7-12~10~9~10~12-10-9-10-9-7-9-7-|
|-----------------------------------------------------------------|
|-----------------------------------------------------------------|
|-----------------------------------------------------------------|
|-----------------------------------------------------------------|
|-----------------------------------------------------------------|

|-5h7p5---5~-5h7p5---5~-5h7p5---5h7p5---5h7p5---5h7p5---| Estas partes 
|-------7----------7----------7-------7-------7-------7-| es mejor hacerlas
|-------------------------------------------------------| tocando las 
|-------------------------------------------------------| primeras dos cuerdas
|-------------------------------------------------------| y haciendo el 
|-------------------------------------------------------| movimiento de dedos

|-14~12-14~--12-14-15-14-12-----12-14-15-14-12-10--9-10-12-10~-9-7-|
|---------------------------14-------------------------------------|
|------------------------------------------------------------------|
|------------------------------------------------------------------|
|------------------------------------------------------------------|
|------------------------------------------------------------------|

|-5h7p5---5h7p5---5h7p5---9~-7h9p7---7h9p7---7h9p7---11~|
|-------7-------7-------7----------9-------9-------9----|
|-------------------------------------------------------|
|-------------------------------------------------------|
|-------------------------------------------------------|
|-------------------------------------------------------|

|-10h12p10----12h14p12----14h15p14----15h17p15----17-19~|
|----------12----------14----------15----------17-------|
|-------------------------------------------------------|
|-------------------------------------------------------|
|-------------------------------------------------------|
|-------------------------------------------------------|

Creo que esta TAB está bastante buena, deben saber aprovecharla y llevar el ritmo. 
Aviso: Este fichero es trabajo propio de su transcriptor y representa su interpretación personal de la canción. El material contenido en esta página es para exclusivo uso privado, por lo que se prohibe su reproducción o retransmisión, así como su uso para fines comerciales.

Califica esta canción


Comentarios en Facebook