Acordes y tablaturas para guitarra

Acordes y Tablaturas
Usuario: Password:

Buscar:
Acordes y Tablaturas >> Letra N >> Acordes de NIRVANA >> Aneurysm
Tablatura de Aneurysm, NIRVANA

Aneurysm

NIRVANA

Transcriptor:
heart-shaped_boxi
Letras de Canciones
Acordes para Guitarra





_____________________________________________________________________________

Aneurysm
_____________________________________________________________________________



INTRO
e----------------------------------------------------------------------------
b----------------------------------------------------------------------------
g-----------------5--------4--------2-----0----------------------------------
d-----4--------5--------4--4-----2--2--2--0----------------------------------
a--4--4--0--3--------0--2-----0--0-----0-------------------------------------
e--2-------------------------------------------------------------------------

e----------------------------------------------------------------------------
b----------------------------------------------------------------------------
g--------------5-----------4-----------2-----0-------------------------------
d-----4-----5--5--5-----4--4--4-----2--2--2--0-------------------------------
a--4--4--0--3-----3--0--2-----2--0--0-----0----------------------------------
e--2-------------------------------------------------------------------------

then
e----------------------------------------------------------------------------
b----------------------------------------------------------------------------
g--3~~~-3---3---3---3/4~~-(4)/5--5--5--5--5/7--7/9/10-10/11--14--14--14--14--
d----------------------------------------------------------------------------
a----------------------------------------------------------------------------
e----------------------------------------------------------------------------

e-----------14-14-14-14-14-16-17-x-x-x-x-x----------------------------------
b--14-14-14------------------------------------------------------------------
g----------------------------------------------------------------------------
d----------------------------------------------------------------------------
a----------------------------------------------------------------------------
e----------------------------------------------------------------------------

then
e----------------------------------------------------------------------------
b----------------------------------------------------------------------------
g-----------5--5--5-----4--4--4-----2--2--2----------------------------------
d--4--4--0--5--5--5--0--4--4--4--0--2--2--2--0-------------------------------
a--4--4--0--3--3--3--0--2--2--2--0--0--0--0--0-------------------------------
e--2--2----------------------------------------------------------------------

play that 8 times, then
e----------------------------------------------------------------------------
b----------------------------------------------------------------------------
g--3--3--3--3--3--3/4--4--4--4--4/5--5--5--5--5--5/6--6--6--6--6/7--7--7--7--
d----------------------------------------------------------------------------
a----------------------------------------------------------------------------
e----------------------------------------------------------------------------

e----------------------------------------------------14-14----14-------------
b----------------------------------------------------14-14----14-------------
g--7/8--8--8--8--8--8/9-9-9-9-9-9-9-9-9-9-9/13-14-14-------14----------------
d----------------------------------------------------------------------------
a----------------------------------------------------------------------------
e----------------------------------------------------------------------------
 
then
e----------------------------------------------------------------------------
b----------------------------------------------------------------------------
g----------------------------------------------------------------------------
d--9-9-9-9-9-9-9-9-9-9-9-9-9-9-9-9-9-9-9-9-9-9-9-9-9-9-9-9-9-9-9-9-----------
a--9-9-9-9-9-9-9-9-9-9-9-9-9-9-9-9-9-9-9-9-9-9-9-9-9-9-9-9-9-9-9-9-----------
e--7-7-7-7-7-7-7-7-7-7-7-7-7-7-7-7-7-7-7-7-7-7-7-7-7-7-7-7-7-7-7-7-----------

e----------------------------------------------------------------------------
b----------------------------------------------------------------------------
g--7--7--7-7-7--7-7-7-7-7-7-7-7----------------------------------------------
d--7--7--7-7-7--7-7-7-7-7-7-7-7----------------------------------------------
a--5--5--5-5-5--5-5-5-5-5-5-5-5----------------------------------------------
e----------------------------------------------------------------------------

e----------------------------------------------------------------------------
b----------------------------------------------------------------------------
g-----------------------------------7--7--7-7-7--7-7-7-7-7-7-7-7-------------
d--9-9-9-9-9-9-9-9-9-9-9-9-9-9-9-9--7--7--7-7-7--7-7-7-7-7-7-7-7-------------
a--9-9-9-9-9-9-9-9-9-9-9-9-9-9-9-9--5--5--5-5-5--5-5-5-5-5-5-5-5-------------
e--7-7-7-7-7-7-7-7-7-7-7-7-7-7-7-7-------------------------------------------

VERSE
e----------------------------------------------------------------------------
b----------------------------------------------------------------------------
g-----------------------------------7--7--7-7-7--7-7-7-7-7-7-7-7-------------
d--9-9-9-9-9-9-9-9-9-9-9-9-9-9-9-9--7--7--7-7-7--7-7-7-7-7-7-7-7-------------
a--9-9-9-9-9-9-9-9-9-9-9-9-9-9-9-9--5--5--5-5-5--5-5-5-5-5-5-5-5-------------
e--7-7-7-7-7-7-7-7-7-7-7-7-7-7-7-7-------------------------------------------
play that 4 times, then

CHORUS
e----------------------------------------------------------------------------
b----------------------------------------------------------------------------
g----------------------------------------------------------------------------
d--4--4--6--7--7--7--8--9--9--9--8--7--7--7----------------------------------
a--4--4--6--7--7--7--8--9--9--9--8--7--7--7--0-------------------------------
e--2--2--4--5--5--5--6--7--7--7--6--5--5--5--0-------------------------------

play that 8 times, the repeat verse and chorus, then
e----------------------------------------------------------------------------
b----------------------------------------------------------------------------
g--3--3--3/4--4/5--5--5/6--6--6--6/7--7--7--7/8--8--8--8--8--8/9--9--9--9/10-
d----------------------------------------------------------------------------
a----------------------------------------------------------------------------
e----------------------------------------------------------------------------

e----------------------------------------------------------------------------
b----------------------------------------------------------------------------
g--10-10-10-10-10/11-11/12-13-13-14-14-14-14-14-14-14/15-15-15-15/16-17-17---
d----------------------------------------------------------------------------
a----------------------------------------------------------------------------
e----------------------------------------------------------------------------

e----------------------------------------------------------------------------
b----------------------------------------------------------------------------
g--17/18---------------------------------------------------------------------
d---------0------------------------------------------------------------------
a----------------------------------------------------------------------------
e----------------------------------------------------------------------------

then
e----------------------------------------------------------------------------
b----------------------------------------------------------------------------
g-----------5--5--5-----4--4--4-----2--2--2----------------------------------
d--4--4--0--5--5--5--0--4--4--4--0--2--2--2--0-------------------------------
a--4--4--0--3--3--3--0--2--2--2--0--0--0--0--0-------------------------------
e--2--2----------------------------------------------------------------------
play that 10 times

OUTRO
e----------------------------------------------------------------------------
b----------------------------------------------------------------------------
g--3--3--4--4--4--4--4--4--4--5--5--5--5--5--6--7--6--7--7--8--8--9--9--9----
d----------------------------------------------------------------------------
a----------------------------------------------------------------------------
e----------------------------------------------------------------------------

e--------------------------------------------------------x-x-x-x-x-----------
b--------------------------------------------------------x-x-x-x-x--/15-----
g--10-10-12-12-11-12-13-14-14-14-15-15-16-16-16-17-17-17------------/15-----
d----------------------------------------------------------------------------
a----------------------------------------------------------------------------
e---------------------------------------------------------------------------


Que te parecio? Calificalo con estrellas!!

Rating: 7.0/10 (70 votos)

Este fichero es trabajo propio de su transcriptor y representa su interpretación personal de la canción. El material contenido en esta página es para exclusivo uso privado, por lo que se prohibe su reproducción o retransmisión, así como su uso para fines comerciales.


Deja tus comentarios:
Letras de canciones | Musica Independiente