Enviado por: xxblackxpinkxx
Agrandar Letra
Reducir Letra
Imprimir



Michael Jackson, Billie Jean

"Billy Jean", Michael Jackson
===========================================
*Por: Sebastián Ara. (Buenos Aires, Argentina, 2008)
*MSN Email: [email protected]
===========================================
Versos 1:

BAJO:
G------------------
D-4---2-4-2--------
A---4-------4-2-4--
E------------------

GUITARRA:
e-2---4----5----4------
B-2---4----5----4------
G-2---4----6----4------
D----------------------
A----------------------
E----------------------




Versos 2:

BAJO:

G-4---2-4-2--------
D---4-------4-2-4--
A------------------
E------------------

GUITARRA:
e-2---4----5----4------
B-2---4----5----4------
G-2---4----6----4------
D----------------------
A----------------------
E----------------------


Aviso: Este fichero es trabajo propio de su transcriptor y representa su interpretación personal de la canción. El material contenido en esta página es para exclusivo uso privado, por lo que se prohibe su reproducción o retransmisión, así como su uso para fines comerciales.

Califica esta canción


Comentarios en Facebook