Acordes y tablaturas para guitarra

Acordes y Tablaturas
Usuario: Password:

Buscar:
Acordes y Tablaturas >> Letra l >> Acordes de los de adentro >> Nubes Negras
Tablatura de Nubes Negras, los de adentro

Nubes Negras

Los de adentro






Intro

Parte 1

e|3-----2-0-|----------0-----|----------|--------0-----|
B|--0-------|1-----0b1---1---|3-----1-0-|------0---0---|
G|----0-----|----0---------0-|--0-------|2---2-------0-|
D|2-----2-2-|--2-------------|----0-----|--0-----------|
A|----------|3---------------|----------|--------------|
E|----------|----------------|3-----3-3-|2-------------|

Parte 2

e|3-----2b3-0-|----------0-----|--------------0-|--------2-3---|
B|--0---------|1-----0b1---1---|3-------0-1-3---|------0-----0-|
G|----0-------|----0---------0-|----0b2---------|2---2---------|
D|2-----------|--2-------------|--0-------------|--0-----------|
A|------------|3---------------|3---------------|--------------|
E|------------|----------------|----------------|2-------------|


Arpegio (4 Veces)

         Em              C
e|------0-------|------0-------|-------3-------|------2-------|
B|----0---0---0-|----1---1---1-|-----3---3---3-|----3---3---3-|
G|--0-------0---|--0-------0---|--0--------0---|--2-------2---|
D|--------------|--------------|---------------|0-------------|
A|--------------|3-------------|---------------|--------------|
E|0-------------|--------------|3--------------|--------------|
Moriría por ti,

     Em              C
e|------0-------|------0-------|-------3-------|------2-------|
B|----0---0---0-|----1---1---1-|-----3---3---3-|----3---3---3-|
G|--0-------0---|--0-------0---|--0--------0---|--2-------2---|
D|--------------|--------------|---------------|0-------------|
A|--------------|3-------------|---------------|--------------|
E|0-------------|--------------|3--------------|--------------|
por ti movería cielo y tierra si pudiera

     Em              C
e|------0-------|------0-------|-------3-------|------2-------|
B|----0---0---0-|----1---1---1-|-----3---3---3-|----3---3---3-|
G|--0-------0---|--0-------0---|--0--------0---|--2-------2---|
D|--------------|--------------|---------------|0-------------|
A|--------------|3-------------|---------------|--------------|
E|0-------------|--------------|3--------------|--------------|
Cuanto daría por tenerte a mi lado,
     Em              C
e|------0-------|------0-------|-------3-------|------2-------|
B|----0---0---0-|----1---1---1-|-----3---3---3-|----3---3---3-|
G|--0-------0---|--0-------0---|--0--------0---|--2-------2---|
D|--------------|--------------|---------------|0-------------|
A|--------------|3-------------|---------------|--------------|
E|0-------------|--------------|3--------------|--------------|
Sin ti me sentiría acabado

Desde aqui es rasgueado

C

A|-2-3-2-0-|

2.
Em        C           G   D
Ya la han visto por ahí,
Em              C           G            D
siempre tan distante e intocable, como siempre,
Em        C           G            D
eres el cielo el infierno de mi sueño
C        Em            G    B7
Y te he soñado tantas veces


Coro.
Em      C           G        D
Nubes negras sobre mi corazón
Em      C           G        D
Nubes negras sin ti todo se acabaría
Em      C           G        D
Nubes negras sobre mi corazón
Em      C           G        D      C
Nubes negras sin ti me moriría

3.
Em     C            G     D
No podría estar sin ella,
Em      C          G   D
Me moriría del dolor,
Em     C        G     D
No podría soportarlo,
Em          C           G   D
cuando no siento su calor,
C        Em            G    B7
cuando no siento su calor ooooooooooh

Coro.
Em      C           G        D
Nubes negras sobre mi corazón
Em      C           G        D
Nubes negras sin ti todo se acabaría
Em      C           G        D
Nubes negras sobre mi corazón
Em      C           G        D      C
Nubes negras sin ti me moriría

Solo Guitara

Punteo 1
e|---------------------------------------------12-10-------|
B|12h13-13-13-12-10-13-12-----------------8/12-------12-10-|
G|------------------------12-9--5/7-7-9-7------------------|

Punteo 2
E|----10-----8-----7-----5----3-|
B|5/7----3/5---3/5---3/5---1/3--|


4.
C                  G               Am
Uhhhhh... estoy cansado del juego
Am                C
No lo puedo soportar

Coro.
Em      C           G        D
Nubes negras sobre mi corazón
Em      C           G        D
Nubes negras sin ti todo se acabaría
Em      C           G        D
Nubes negras sobre mi corazón
Em      C           G        D      C
Nubes negras sin ti me moriría


Que te parecio? Calificalo con estrellas!!

Rating: 8.7/10 (407 votos)

Este fichero es trabajo propio de su transcriptor y representa su interpretación personal de la canción. El material contenido en esta página es para exclusivo uso privado, por lo que se prohibe su reproducción o retransmisión, así como su uso para fines comerciales.


Deja tus comentarios:
Letras de canciones | Musica Independiente